» » »

This Providence - My Beautiful Rescue Tabs

Artists:  A B C D E F G H I J K L M N O P Q R S T U V W X Y Z # 

My Beautiful Rescue Tabs

(ver. 1) Click to play this song!
This Providence
 Rating:
3.6/5 (5 votes)

 My Beautiful Rescue lessons Tabs too difficult? Try these video lessons and learn fast
 
                Artis: This Providence

enjoy!!

Standard tunning: EADGBE
Capo on 2nd.


Verse 1:

e|----------------|
B|-00-0------00-0-|
G|-22-2------22-2-|
D|-00-2------22-2-|  x3
A|-00-0------00-4-|
E|-22-x------xx-x-|

"I've been jumping from the tops of buildings..."

e|---------------------------|
B|-00-0------00-00-0000-0000-|
G|-22-2------22-22-2222-2222-|
D|-00-2------22-22-2222-2222-|  x1
A|-00-0------00-04-4444-2222-|
E|-22-x------xx-xx-xxxx-xxxx-|

"And in the midst of this self-inflicted pain, I can see my beautiful rescue..."


Chorus 1:

e|---------------------|
B|-0000-0000-0000-0000-|
G|-2222-2222-2222-2222-|
D|-2222-0000-2222-2222-| x2  
A|-0000-0000-4444-2222-|
E|-xxxx-2222-xxxx-4444-|

"I'm falling more in love..."

e|---------------------|
B|-0000-0000-0000-0~---|
G|-2222-2222-2222-2~---|
D|-0000-2222-2222-2~---|  x1
A|-0000-0000-4444-2~---|
E|-2222-xxxx-xxxx-4~---|

"I'm falling head over heals for you..."


Verse 2:

e|----------------|
B|-00-0------00-0-|
G|-22-2------22-2-|
D|-00-2------22-2-|  x3
A|-00-0------00-4-|
E|-22-x------xx-x-|

"I've been dancing from the tops of buildings..."

e|---------------------------|
B|-00-0------00-00-0000-0000-|
G|-22-2------22-22-2222-2222-|
D|-00-2------22-22-2222-2222-|  x1
A|-00-0------00-04-4444-2222-|
E|-22-x------xx-xx-xxxx-xxxx-|

"Well I'll trample my pride, Until the whole world dance with me..."


Chorus 2

e|---------------------|
B|-0000-0000-0000-0000-|
G|-2222-2222-2222-2222-|
D|-2222-0000-2222-2222-| x2  
A|-0000-0000-4444-2222-|
E|-xxxx-2222-xxxx-4444-|

"I'm falling more in love..."

e|---------------------|
B|-0000-0000-0000-0000-|
G|-2222-2222-2222-2222-|
D|-0000-2222-2222-2222-|  x1
A|-0000-0000-4444-2222-|
E|-2222-xxxx-xxxx-4444-|

"I'm falling head over heals for you..."


Break:

e|---------------------|---------------------|
B|-xxxx-0000-0000-0000-|-xxxx-0000-0000-0000-|
G|-2222-2222-2222-2222-|-2222-2222-2222-2222-|
D|-2222-0000-2222-2222-|-2222-0000-2222-2222-|  x1
A|-2222-0000-4444-0000-|-2222-0000-4444-4444-|
E|-xxxx-2222-xxxx-xxxx-|-xxxx-2222-xxxx-xxxx-|

"I'm crying out. Wash my hands, these bloody hands Lord. Open my mouth and I'll sing"


Interlude:

e|---------------------|
B|-0000-0000-0000-0000-|
G|-2222-2222-2222-2222-|
D|-2222-0000-2222-2222-| x2  
A|-0000-0000-4444-2222-|
E|-xxxx-2222-xxxx-4444-|


Final Chorus:

e|---------------------|
B|-0000-0000-0000-0000-|
G|-2222-2222-2222-2222-|
D|-2222-0000-2222-2222-| x2  
A|-0000-0000-4444-2222-|
E|-xxxx-2222-xxxx-4444-|

"I'm falling more in love..."

e|---------------------|
B|-0000-0000-0000-0----|
G|-2222-2222-2222-2----|
D|-0000-2222-2222-2----|  x1
A|-0000-0000-4444-2----|
E|-2222-xxxx-xxxx-4----|

"I'm falling head over heals for you..."


End:

e|-----------------|
B|-00-0------00-0~-|
G|-22-2------22-2~-|
D|-00-2------22-2~-|  x3
A|-00-0------44-0~-|
E|-22-x------xx-x--|

"I've been jumping from the tops of buildings...with you..."
            
Submit corrections


        My Beautiful Rescue lessons Hard to play? Try these video lessons and learn fast My Beautiful Rescue lessons
        
↑ Back to top | Tablatures and chords for acoustic guitar and electric guitar, ukulele, drums are parodies/interpretations of the original songs. You may use it for private study, scholarship, research or language learning purposes only