Home » T » Thirsty Merc »

Thirsty Merc - Mousetrap Heart Bass

Artists:  A B C D E F G H I J K L M N O P Q R S T U V W X Y Z # 

Mousetrap Heart Bass

(ver. 1) Click to play this song!
Thirsty Merc
[Verse 1]
 
“Hot woman…”
G|------------------------------------|
D|------------------------------------|
A|-------------6-46--6-46-------------|
E|-6-46--6-46--------------6-46--6-46-|
 
G|------------------------------------|
D|------------------------------------|
A|-6-46--6-46--------1-11--46-66------|
E|-------------2-21-------6-------4444|
 
 
[Chorus]
 
“Mayday!…”
G|------------------------------------|
D|------------------------------------|
A|-------------------4--3\------------|
E|-6-65--4-43--2-24-------1-----------|
 
G|------------------------------------|
D|------------------------------------|
A|-------------------4-4/\------------|
E|-6-65--4-43--2-24-------------------|
 
 
[Verse 2]
 
“Hot woman…”
G|------------------------------------|
D|------------------------------------|
A|-------------6-46--6-46-------------|
E|-6-46--6-46--------------6-46--6-46-|
 
G|------------------------------------|
D|---------------34-43----------------|
A|-6-46--6-46-646-------1-11------1-11|
E|----------------------------2-21----|
 
G|------------------------------------|
D|------------------------------------|
A|--46-66--8-88--9-99-----------------|
E|-6-------------------4444-----------|
 
 
[Chorus]
 
“Mayday!…”
G|------------------------------------|
D|------------------------------------|
A|-------------------4--3\------------|
E|-6-65--4-43--2-24-------1-----------|
 
G|------------------------------------|
D|------------------------------------|
A|--------------------34--------------|
E|-6-65--4-43--2-24-46----------------|
 
 
 
[Bridge]
 
“I know…”
G|------------------------------------|
D|---------11111111--------55555555---|
A|-33333333--------11111111--------333|
E|------------------------------------|
 
G|------------------------------------|
D|-----11111431-1---------------------|
A|---33----------1--4---7------1--4---|
E|113----------------------5----------|
 
G|------------------------------------|
D|------------------------------------|
A|77778888----------------------------|
E|------------------------------------|
 
 
[Chorus]
 
“Mayday!…”
G|------------------------------------|
D|------------------------------------|
A|-------------------55554\-----------|
E|---76--5-54--3-35-5------2----------|
 
G|------------------------------------|
D|------------------------------------|
A|-------------------55554214---------|
E|-7-76--5-54--3-35-5-----------------|
            
Submit corrections

↑ Back to top | Tablatures and chords for acoustic guitar and electric guitar, ukulele, drums are parodies/interpretations of the original songs. You may use it for private study, scholarship, research or language learning purposes only