Home » T » Third Day »

Third Day - Revelation Tabs

Artists:  A B C D E F G H I J K L M N O P Q R S T U V W X Y Z # 

Revelation Tabs

(ver. 1) Click to play this song!
Third Day
 Rating:
4/5 (4 votes)
                Band: Third Day
Tuning: Standart

I'm not 100% sure about the solo, but I gave my best.

Legend:

~ let ring
h hammer-on
p pull-off
b bend note
/ slide up
\ slide down


Verse:

   A                                         E
My life has led me down the road that’s so uncertain
                             G
Now I am left alone and I am broken trying to find my way
D
Trying to find the faith that’s gone

     A                                        E
This time I know that You are holding all the answers
                                    G
I’m tired of losing hope and taking chances
                            D
On roads that never seem to be the ones that bring me home


Chorus:

Riff A

              A                       G
Give me a revelation, show me what to do
                          Bmin
Cause I’ve been trying to find my way
                D
I haven’t got a clue
                 A                         G
Tell me should I stay here or do I need to move
              Bmin                             D
Give me a revelation, I’ve got nothing without You
                         A
I’ve got nothing without You


Riff B

e|--9------9------9-----7-----7-----7----7-----7-----7----10-------10-------10-----|
B|----10-----10-----10----8-----8-----8----7-----7-----7-----10-------10-------10--|
G|-------9------9-----------9-----9----------7-----7------------11-------11--------|
D|---------------------------------------------------------------------------------|
A|---------------------------------------------------------------------------------|2x
E|---------------------------------------------------------------------------------|


Chorus ends with:

e|--------------------------------|
B|--------------------------------|
G|------------2-4/6b-4-2~---------|
D|--------2-4---------------------|
A|--0-2/4-------------------------|
E|--------------------------------|


Verse:

   A                                            E
My life has led me down this path that’s ever winding
                                          G
Through every twist and turn I’m always finding
                       D
That I am lost again, Tell me when this road will ever end


Chorus:

Riff A

              A                       G
Give me a revelation, show me what to do
                          Bmin
Cause I’ve been trying to find my way
                D
I haven’t got a clue
                 A                         G
Tell me should I stay here or do I need to move
              Bmin                             D
Give me a revelation, I’ve got nothing without You
                         A
I’ve got nothing without You


Riff B

e|--9------9------9-----7-----7-----7----7-----7-----7----10-------10-------10-----|
B|----10-----10-----10----8-----8-----8----7-----7-----7-----10-------10-------10--|
G|-------9------9-----------9-----9----------7-----7------------11-------11--------|
D|---------------------------------------------------------------------------------|
A|---------------------------------------------------------------------------------|2x
E|---------------------------------------------------------------------------------|


Bridge:

e|------------------------------------------------------------------------------|
B|------------------------------------------------------------------------------|
G|-----------44444444-----------------------------44444444----------------------|
D|--55555555-44444444-44444444-22222222--55555555-44444444-44444444-5555-7777---|
A|--55555555-22222222-44444444-22222222--55555555-22222222-44444444-5555-7777---|
E|--33333333----------22222222-00000000--33333333----------22222222-3333-5555---|


Chorus:

Riff A

              A                       G
Give me a revelation, show me what to do
                          Bmin
Cause I’ve been trying to find my way
                D
I haven’t got a clue
                 A                         G
Tell me should I stay here or do I need to move
              Bmin                             D
Give me a revelation, I’ve got nothing without You
                         A
I’ve got nothing without You

Riff B

e|--9------9------9-----7-----7----7----10------10------10-----7-----7-----7----|
B|----10-----10-----10----8-----8----8-----10------10------10----8-----8-----8--|
G|-------9------9-----------9-----9-----------9-------9------------9-----9------|
D|------------------------------------------------------------------------------|
A|------------------------------------------------------------------------------|
E|------------------------------------------------------------------------------|

e|--9------9------9-----7-----7-----7----7-----7-----7----10-------10-------10-------|
B|----10-----10-----10----8-----8-----8----7-----7-----7-----10-------10-------10----|
G|-------9------9-----------9-----9----------7-----7------------11-------11----------|
D|-----------------------------------------------------------------------------------|
A|-----------------------------------------------------------------------------------|
E|-----------------------------------------------------------------------------------|


Solo Part:

Riff A

A, G, Bmin, D


Riff B

e|----------------------------------------------10--10----------------------|
B|------------------------------------1010-1212b--12--12121212-13-14/151515-|
G|--7/9b-9p8h7p8-777777/--11p10h11-1111-------------------------------------|
D|--------------------------------------------------------------------------|
A|--------------------------------------------------------------------------|
E|--------------------------------------------------------------------------|

  -------------------------------------------------------|
  --15p14h15b14\-121212121212h14p12h14-10b10b10b10\------|
  --------------------------------------------------2~---|
  -------------------------------------------------------|
  -------------------------------------------------------|
  -------------------------------------------------------|


Ends with:

e|-------|
B|--2----|
G|--2----|
D|--2----|
A|-------|
E|-------|
            
Submit corrections

↑ Back to top | Tablatures and chords for acoustic guitar and electric guitar, ukulele, drums are parodies/interpretations of the original songs. You may use it for private study, scholarship, research or language learning purposes only