» » »

Thin Lizzy - Parisienne Walkways Tabs

Artists:  A B C D E F G H I J K L M N O P Q R S T U V W X Y Z # 

Parisienne Walkways Tabs

(ver. 1) Click to play this song!
Thin Lizzy
 Rating:
4.3/5 (27 votes)

 Parisienne Walkways lessons Tabs too difficult? Try these video lessons and learn fast
 
                [Riff 1]
e|---------------|
b|---------------|
g|---------------|
D|--7/4----------|
A|------7/4------|
E|----------5/8--|

[Riff 2]
e|---------------------------12---------------------------------------------|
b|--15b17-15-13p12--------------13b15---13b15-13-12-------------13/15---13--|
g|-----------------14 12----------------------------14-12-------------------|
D|-----------------------15-------------------------------12-14-------------|
A|--------------------------------------------------------------------------|
E|--------------------------------------------------------------------------|

[Riff 3]
e|------------------------------------------------------------------|
b|--10h12b13-12------------------12b13r12---12----------------------|
g|--------------14-12--------------------------14p13----------------|
D|--------------------15-14-12~~---------------------15-14p12-------|
A|------------------------------------------------------------15----|
E|------------------------------------------------------------------|

[Riff 1]
(Again)
e|---------------|
b|---------------|
g|---------------|
D|--7/4----------|
A|------7/4------|
E|----------5/8--|

[Riff 4]
e|-----------12--13b-13b-13-13--------------13-13 15-12----|
b|--14--15-----------------------12-13-13b-----------------|
g|---------------------------------------------------------|
D|---------------------------------------------------------|
A|---------------------------------------------------------|
E|---------------------------------------------------------|

e|---------------------------------------------------------|
b|-----12-13--15b-15b-15-15---------12-13b-13b---13-13-----|
g|--14-----------------------13-14-------------------------|
D|---------------------------------------------------------|
A|---------------------------------------------------------|
E|---------------------------------------------------------|

[Riff 5]
(Outro)
e|---------------------------------------------------------|
b|---------------------------------------------------------|
g|--12-14-16-12--------------------------------------------|
D|--------------14---10 12 14-10---------------------------|
A|-------------------------------12------------------------|
E|---------------------------------------------------------|            
Submit corrections


        Parisienne Walkways lessons Hard to play? Try these video lessons and learn fast Parisienne Walkways lessons
        
↑ Back to top | Tablatures and chords for acoustic guitar and electric guitar, ukulele, drums are parodies/interpretations of the original songs. You may use it for private study, scholarship, research or language learning purposes only