Home » T » Thin Lizzy »

Thin Lizzy - Clifton Grange Hotel Tabs

Artists:  A B C D E F G H I J K L M N O P Q R S T U V W X Y Z # 

Clifton Grange Hotel Tabs

(ver. 1) Click to play this song!
Thin Lizzy
[Verse 1]
          [                                         pm                                               ]
d#|--17\---------------------------------------------------------------------------------------------|
A#|--------------------------------------------------------------------------------------------------|
F#|--------------------------------------------------------------------------------------------------|
C#|--------------------------------------------------------------------------------------------------|
G#|-------3-3-3-3-3-3-3-x-x-x-x--3-3-3-3-3-3-3-x-x-x-x--3-3-3-3-3-3-3-x-x-x-x--3-3-3-3-3-3-3-x-x-x-x-|
D#|--------------------------------------------------------------------------------------------------|
   [                                              pm                                           ]
d#|--------------------------------------------------------------------------------------------|
A#|--------------------------------------------------------------------------------------------|
F#|--------------------------------------------------------------------------------------------|
C#|------------------------3-3-3-3-3-3-3-x-x-x-x--3-3-3-3-3-3-3-x-x-x-x--5-5-5-5-5-5-5-x-x-x-x-|
G#|-3-3-3-3-3-3-3-x-x-x-x----------------------------------------------------------------------|
D#|--------------------------------------------------------------------------------------------|
   [         pm         ]                           [                    pm                      ]
d#|----------------------------------------------------------------------------------------------|
A#|----------------------------------------------------------------------------------------------|
F#|----------------------------------4-----------2 ----------------------------------------------|
C#|-5-5-5-5-5-5-5-x-x-x-x----2-5-------4---5p4p2-2-----------------------------------------------|
G#|------------------------3-----3-2-----2-------0--3-3-3-3-3-3-3-x-x-x-x--3-3-3-3-3-3-3-x-x-x-x-|
D#|----------------------------------------------------------------------------------------------|
   [                                            pm                                             ]
d#|--------------------------------------------------------------------------------------------|
A#|--------------------------------------------------------------------------------------------|
F#|--------------------------------------------------------------------------------------------|
C#|-3-3-3-3-3-3-3-x-x-x-x--3-3-3-3-3-3-3-x-x-x-x-----------------------------------------------|
G#|-----------------------------------------------5-5-5-5-5-5-5-x-x-x-x--5-5-5-5-5-5-5-x-x-x-x-|
D#|--------------------------------------------------------------------------------------------|
                             (toggle volume)
d#|--------------------------2-|
A#|--------------------------1-|
F#|-----------4-----------2--2-|
C#|---2-5-------4---5p4p2-2----|
G#|-3-----3-2-----2-------0----|
D#|----------------------------|
 
[Solo 1]
 
d#|-----------17-14h17p14-----------------------------------------------------------------------------------|
A#|-----------------------17-14h17p14-----------------------------------------------------------------------|
F#|-7-5h7p5\4------------------------16-----7b-7pb-7pb-7r^5-7-5h7p5h7p5--4b-2h4p2h4p2---5/14-14-14-14\5-5-5-|
C#|-------------------------------------16------------------------------------------------------------------|
G#|---------------------------------------------------------------------------------------------------------|
D#|---------------------------------------------------------------------------------------------------------|
 
d#|----------------------------------------------------------------------------------------------------------|
A#|----------------------------------------------------------------------------------------------------------|
F#|-5/14-14-14-14\5-5-5--5-7-7b-7pb-7pb-7pb-7pb-7bp-7bp-7bp-7pbr--7pb-7pb-7pbr--7pb-7pb-7pbr-7--7bp-7bp-7bpr-|
C#|----------------------------------------------------------------------------------------------------------|
G#|----------------------------------------------------------------------------------------------------------|
D#|----------------------------------------------------------------------------------------------------------|
 
d#|----------------------------------------------------------------------------------------------------------|
A#|------5-8p5----------------------------------------------------5-8p5----5h8-8h10-10b---10b---10b---10b-10b|
F#|-7-7b-------7-5-7-7b-5h7p5---5\4-5-5b--4h5-4h5p4---4-5/7-7b-7b-------7b-----------------------------------|
C#|---------------------------7---------------------7--------------------------------------------------------|
G#|----------------------------------------------------------------------------------------------------------|
D#|----------------------------------------------------------------------------------------------------------|
 
d#|---------------------------------8----8----8----8-------8-10-10br^8-10p8----------------------------------|
A#|-10b-10b--10br-8h10p8---8-10-10----10---10---10---10-10------------------10p8---8-------------------------|
F#|----------------------9-------------------------------------------------------9---9\7-5-7-7br^5-7p5---5---|
C#|----------------------------------------------------------------------------------------------------7---7v|
G#|----------------------------------------------------------------------------------------------------------|
D#|----------------------------------------------------------------------------------------------------------|
       (toggle volume)
d#|----2---------------5-2-----------------------------------------------------------------------------------|
A#|----1-------------------5---------------------------------------------------------------------------------|
F#|-5\-2---------------------4br^2-------2v-4/6v-6/4p2h4--4h5-7-5-4-5--7p5p4-7p5p4-7p5p4-7p5p4-7p5p4-7p5p4-6-|
C#|--------------------------------4-2-4---------------------------------------------------------------------|
G#|----------------------------------------------------------------------------------------------------------|
D#|----------------------------------------------------------------------------------------------------------|
 
d#|-/15-14-15-14-15-14----------------------------------|
A#|--------------------17-14----------------------------|
F#|--------------------------17p16p14h16p14----------14-|
C#|-----------------------------------------16p14h16----|
G#|-----------------------------------------------------|
D#|-----------------------------------------------------|
 
[Outro]
   [                        pm                         ]
d#|--------------------------------------------------------------------------------------------------------|
A#|--------------------------------------------------------------------------------------------------------|
F#|-----------------------------------------------------------------------4-5-7-7b-7pb-7pb-7pb-7pb-7pb-7pb-|
C#|---------3-3-3-3-3-3-3-x-x-x-x-3-3-3-3-3-3-3-x-x-x-x---------------4-5----------------------------------|
G#|-x-x-x-x-------------------------------------------------------4-5--------------------------------------|
D#|-----------------------------------------------------2-3-2-3/5------------------------------------------|
 
d#|----------------------------------------------------------------------------------------------------------|
A#|---------------------------------------------------------------13-12-15-17-17--x-x-17-15-17-15-17-15-17-15|
F#|-7pb-7pb-7pb-7pbr----7-7-5-7-7br^5---5-7-7----------10-9-12-11--x--x--x--x--x--x-x--x--x--x--x--x--x--x--x|
C#|-----------------------------------7-------7-7/10-9--x-x--x--x-10--9-12-14-14--x-x-14-12-14-12-14-12-14-12|
G#|-------------------------------------------x-x-x--x--8-7-10--9--------------------------------------------|
D#|-------------------------------------------5-5/8--7-------------------------------------------------------|
 
d#|----------|
A#|-13-12-13-|
F#|--x--x--x-|
C#|-10--9-10-|
G#|----------|
D#|----------|
            
Submit corrections

↑ Back to top | Tablatures and chords for acoustic guitar and electric guitar, ukulele, drums are parodies/interpretations of the original songs. You may use it for private study, scholarship, research or language learning purposes only