» » »

Thin Lizzy - Black Boys On The Corner Tabs

Artists:  A B C D E F G H I J K L M N O P Q R S T U V W X Y Z # 

Black Boys On The Corner Tabs

(ver. 1) Click to play this song!
Thin Lizzy
 Rating:
4/5 (5 votes)

 Black Boys On The Corner lessons Tabs too difficult? Try these video lessons and learn fast
 
                                        Black Boys On The Corner
                            By Thin Lizzy


E---------------------|-----------------------------|-------------------|
B---------------------|-----------------------------|-------------------|
G---------------------|-----------------------------|-------------------|
D---0--5--5--5--5--3--|-----------------------------|-------------------|
A---------------------|--0--3--0--5--5--5--5--3--0--|-------------------|
E---------------------|-----------------------------|-------------------|

E------------------------------------------------|----------------------|
B------------------------------------------------|----------------------|
G------------------------------------------------|----------------------|
D---0--5--5--5--5--3-----------------------------|----------------------|
A---------------------0--3--0--5--5--5--5--3--0--|----------------------|
E------------------------------------------------|----------------------|


                                                 pick slide
E-----------------------------------------------------------------------|
B-----------------------------------------------------------------------|
G------------------------------------------------------------5--5--5----|
D---0--5--5--5--5--3-----------------------------------------5--5--5----|
A---------------------0--3--0--5--5--5--5--3--0--------------3--3--3----|
E-----------------------------------------------------------------------|

E-----------------------------------------------------------------------|
B-----------------------------------------------------------------------|
G-----------------------------------------------------------------------|
D---0--5--5--5--5--3----------------------------------------------------|
A---------------------0--3--0--5--5--5--5--3--0-------------------------|
E-----------------------------------------------------------------------|

E-----------------------------------------------------------------------|
B-----------------------------------------------------------------------|
G-----------------------------------------------------------------------|
D---------------------3--5--5--5--5-----------------------5-------------|
A------5--5--5--3--5-----------------3--3--3--3--3--3--3-----5--5--5----|
E-----------------------------------------------------------------------|

E-----------------------------------------------------------------------|
B-----------------------------------------------------------------------|
G-----------------------------------------------------------------------|
D------------------------------------------4--5--7/---------------------|
A---5--5--5-----------5--5--5--5--5--5--5-------------------------------|
E-----------------------------------------------------------------------|


One of the black boys said
"I need none of your pity"
It's your mama that don't
Like you loose in the city

But stick about, take note
Take a tip, take no back lip
Come come a little closer
Let me see you snap your fingertip

Because standing on the corner
Just might suit you or maybe baby
There's something else you wanna do

Like rolling dice, nice
Like shooting pool, hey that's cool

I'm a little black boy and I don't know my place
I'm just a little black boy, I just threw my ace
I'm a little black boy, recognize my face

One of the black boys said
"I'm a giving a warning"
"People been putting me down"
"I'm so tired I'm yawning"

A new suit, pretty boots to boot
And I'm feeling slick
Gonna go to town, look around
And pull a chick

Of course standing on the corner
Might suit you or maybe baby
There's something else that you wanna do

Like playing poker, joker
Like to back a race, ace

I'm a little black boy and I don't know my proper place
I'm a little black boy, get my head in its space
I'm a little black boy, I just play my bass
I'm a little black boy, it's no disgrace


========================================================================
==                       TABLATURE EXPLANATION                        ==
========================================================================

----------                ----------                ----t---|
----5h8--- Hammeron       ----(8)--- Ghost          ----6---| Tap
----------                ---------- Note           --------|
----5p8--- Pulloff        ----------                --------|

----------                ----------                -----p--|
----5/8--- Slide Up       -----x---- Dead           -----7--| Pop
----------                ---------- Note           --s-----|
----5\8--- Slide Down     ----------                --5-----| Slap

----------                ||------|| Repeat         --------|
----5~~~-- Vibrato        ||*----*||                ---5^---| Bend
----------                ||*----*||                --------|
----------                ||------||                --------|

----------                ----------                --------|
-4:------- Time           ----------                --------|
-4:------- Signature      ----------                --------|
----------                ----------                --------|

========================================================================
==               Created with BUCKET O' TAB for Windows               ==
========================================================================
            
Submit corrections


        Black Boys On The Corner lessons Hard to play? Try these video lessons and learn fast Black Boys On The Corner lessons
        
↑ Back to top | Tablatures and chords for acoustic guitar and electric guitar, ukulele, drums are parodies/interpretations of the original songs. You may use it for private study, scholarship, research or language learning purposes only