Home » T » They Might Be Giants »

They Might Be Giants - Youre Not The Boss Of Me Now Tabs

Artists:  A B C D E F G H I J K L M N O P Q R S T U V W X Y Z # 

Youre Not The Boss Of Me Now Tabs

(ver. 1) Click to play this song!
They Might Be Giants
 Rating:
4/5 (4 votes)
                You're Not the Boss Of Me Now
(abridged version: theme to Malcolm in the Middle)


Ska intro:

    C               D               Cadd9           C

e---8---8---8---8--10--10--10--10--10--10--10--10---8---8------
b---8---8---8---8---7---7---7---7---8---8---8---8---8---8---7..
g---9---9---9---9---7---7---7---7---9---9---9---9---9---9---7..
d--10--10--10--10---7---7---7---7--10--10--10--10--10--10---7..
a-----------------------------------------------------------5..
E--------------------------------------------------------------
   yes no       maybe         i dont know       can you repeat the question

Main Chorus (distorted power chords):
   
   G   Am  C   D
e----------------
b----------7---9-
g--4---5---7---9-
d--5---7---7---9-
a--5---7---5---7-
E--3---5---------

   you're not the boss..etc

Bridge

   G   Em  C   D
e--3---0---------
b--3---0---7---9-
g--4---0---7---9-
d--5---2---7---9-
a--5---2---5---7-
E--3---0---------

   life is unfair..  

   The short version ends on the first G chord, but the real song continues with the other 4 chords, strummed clean.  Thats pretty much it except for the solo.

Long live ska and nerd rock!
            
Submit corrections

↑ Back to top | Tablatures and chords for acoustic guitar and electric guitar, ukulele, drums are parodies/interpretations of the original songs. You may use it for private study, scholarship, research or language learning purposes only