» » »

The Xx - Sunset Tabs

Artists:  A B C D E F G H I J K L M N O P Q R S T U V W X Y Z # 

Sunset Tabs

(ver. 1) Click to play this song!
The Xx
 Rating:
4.4/5 (5 votes)

 Sunset lessons Tabs too difficult? Try these video lessons and learn fast
 
                [Intro]

e|---------------------------------------------------------------------------|
B|---------------------------------------------------------------------------|
G|---------------------------------------------------------------------------|
D|---7--11--6-----7--11--4---------------------------------------------------|
A|---9--12--7-----9--12--5---------------------------------------------------|   x2
E|---------------------------------------------------------------------------|


[First verse, no guitar] - 'I saw you again, it felt like we had never met...'

[Chorus 1, no guitar] - 'I always thought it was sad, the way we act like strangers...'



[Second verse, guitar intro plays x4]- 'We make believe, I've never seen your face you neither mine...'

e|---------------------------------------------------------------------------|
B|---------------------------------------------------------------------------|
G|---------------------------------------------------------------------------|
D|-----------7--11--6--------7--11--4----------------------------------------|
A|-----------9--12--7-- -----9--12--5----------------------------------------|   x4
E|---------------------------------------------------------------------------|


[Chorus 2, no guitar] 'I always thought it was a shame, that we have to play these games...'

[Bass solo]
 
[Guitar solo]

e|---------------------------------------------------------------------------|
B|---------------------------------------------------------------------------|
G|------2--2-----1-----1-------6---6-------9------8--------------------------|
D|---4----4-4-2---2-2---2--/7-----7-7-/11---11-9-----------------------------|   x2
A|---------------------------------------------------------------------------|
E|---------------------------------------------------------------------------|


[Outro]

  I always thought it was a shame, that we have to play these games
  It felt like you really knew me, now it feels like you see through me.

e|---------------------------------------------------------------------------|
B|---------------------------------------------------------------------------|
G|---------------------------------------------------------------------------|
D|----------------11---------------------6---------------------7-------------|
A|----------------12---------------------7---------------------9-------------|
E|---------------------------------------------------------------------------| 
            
Submit corrections


        Sunset lessons Hard to play? Try these video lessons and learn fast Sunset lessons
        
↑ Back to top | Tablatures and chords for acoustic guitar and electric guitar, ukulele, drums are parodies/interpretations of the original songs. You may use it for private study, scholarship, research or language learning purposes only