» » »

The Xx - Crystalised Intro Tabs

Artists:  A B C D E F G H I J K L M N O P Q R S T U V W X Y Z # 

Crystalised Intro Tabs

(ver. 1) Click to play this song!
The Xx
 Rating:
4/5 (4 votes)

 Crystalised Intro  lessons Tabs too difficult? Try these video lessons and learn fast
 
                Intro: (00:00-00:34)

e|----2-2-1-0----------------------------------------------------------------|
B|--0---------2-2-2-3-5-3-0-----0-0-0----------3-----------------------------|
G|------------------------------------0------0-------------------------------|   x2
D|---------------------------------------------------------------------------|     
A|---------------------------------------------------------------------------|
E|---------------------------------------------------------------------------|

e|---------------------------------------------------------------------------|
B|---0-0-0-0-3-3-3--2--2-2-3-2-3---0-0-0-0--5-5-5-2--2-2-(3-2-3)-------------|
G|---------------------------------------------------------------------------|   x2
D|---------------------------------------------------------------------------|
A|---------------------------------------------------------------------------|
E|---------------------------------------------------------------------------|


            
Submit corrections


        Crystalised Intro  lessons Hard to play? Try these video lessons and learn fast Crystalised Intro  lessons
        
↑ Back to top | Tablatures and chords for acoustic guitar and electric guitar, ukulele, drums are parodies/interpretations of the original songs. You may use it for private study, scholarship, research or language learning purposes only