» » »

The Wombats - Ice Cream Bass

Artists:  A B C D E F G H I J K L M N O P Q R S T U V W X Y Z # 

Ice Cream Bass

(ver. 1) Click to play this song!
The Wombats
 Rating:
4.3/5 (27 votes)

 Ice Cream lessons Tabs too difficult? Try these video lessons and learn fast
 
                [Intro]
G|--------------------------------------------------------------------------------------------------|
D|-------------------------------------------------7-9-9/11-9-7-9-------7-9-9/11-9-7-9--------------|
A|-5-5--5-5-4--5--5-5--5-5-5-4--5-5--5-5-4--5--5-5----------------9-9-9----------------7-7-7--7-7-7-|
E|--------------------------------------------------------------------------------------------------|

G|--------------------------------------------------------------------------------------------------|
D|-------------------------------------------------7-9-9/11-9-7-9-------7-9-9/11-9-7-9--------------|
A|-5-5--5-5-4--5--5-5--5-5-5-4--5-5--5-5-4--5--5-5----------------9-9-9----------------7-7-7--7-7-7-|
E|--------------------------------------------------------------------------------------------------|

[Verse]
G|------------------------------------------------------------------------------------|
D|----------------------------------------------------------4-4--4-4-2--4--4-4--4-4-4-|
A|-5-5--5-5-4--5--5-5--5-5-5-4--5-5--5-5-4--5--5-5--5-5-5-5---------------------------|
E|------------------------------------------------------------------------------------|

G|----------------------------------|
D|-4/7-7--7-7-6--7-7-7--7/9--7--(4)-|
A|----------------------------------|
E|----------------------------------|

G|------------------------------------------------------------------------------------|
D|----------------------------------------------------------4-4--4-4-2--4--4-4--4-4-4-|
A|-5-5--5-5-4--5--5-5--5-5-5-4--5-5--5-5-4--5--5-5--5-5-5-5---------------------------|
E|------------------------------------------------------------------------------------|

G|----------------------------------|
D|-4/7-7--7-7-6--7-7-7--7-7-7-7-----|
A|----------------------------------|
E|----------------------------------|

[Bridge]
G|------------------------------------------------7-7---------------------------|
D|--4-4-4--4-4-4--4-4-4--7-7--5-5-5--5-5-5--5-5-5------9-9-9--9-9-9--9-9-9--11\-|
A|------------------------------------------------------------------------------|
E|------------------------------------------------------------------------------|

G|-----------------------------|
D|-----------------------------|
A|-2-2-2-2-2-2-2-2-2-2-2-2-2-2-|
E|-----------------------------|

[Chorus]
G|-------------------------------------------------------------|
D|-------------------------------------------------------------|
A|-5--4-5-4-5--4--2--0-2-4-2-0-----------------------------(2)-|
E|------------------------------2--0-2-0-2--0--5------5-0------|

G|-----------------------------------------------------------|
D|-----------------------------------------------------------|
A|-5--4-5-4-5--7--2--0-2-4-2-0--/9\--------------------------|
E|------------------------------------0-2-0-2--5--0--(0)-(0)-|

[Verse]
G|-----------------------------------------------------------------------------------------------------|
D|-------------------------------------------------7-9-9/11-9-7-9-------7-9-9/11-9-7-9-----------------|
A|-5-5--5-5-4--5--5-5--5-5-5-4--5-5--5-5-4--5--5-5----------------9-9-9----------------7-7-7-7-7-7-7-7-|
E|-----------------------------------------------------------------------------------------------------|

G|------------------------------------------------------------------------------------|
D|----------------------------------------------------------4-4--4-4-2--4--4-4--4-4-4-|
A|-5-5--5-5-4--5--5-5--5-5-5-4--5-5--5-5-4--5--5-5--5-5-5-5---------------------------|
E|------------------------------------------------------------------------------------|

G|----------------------------------|
D|-4/7-7--7-7-6--7-7-7--7/9--7--(4)-|
A|----------------------------------|
E|----------------------------------|

G|------------------------------------------------------------------------------------|
D|-----------------------7-7-7------------------------------4-4--4-4-2--4--4-4--4-4-4-|
A|-5-5--5-5-4--5--5-5--5--------5-5--5-5-4--5--5-5--5-5-5-5---------------------------|
E|------------------------------------------------------------------------------------|

G|----------------------------------|
D|-4/7-7--7-7-6--7-7-7--7-7-7-7-----|
A|----------------------------------|
E|----------------------------------|

[Bridge]
G|------------------------------------------------7-7---------------------------------|
D|--4-4-4--4-4-4--4-4-4--7-7--5-5-5--5-5-5--5-5-5------9-9-9--9-9-9--9-9-9-9-9/11-11\-|
A|------------------------------------------------------------------------------------|
E|------------------------------------------------------------------------------------|

G|-----------------------------|
D|-----------------------------|
A|-2-2-2-2-2-2-2-2-2-2-2-2-2-2-|
E|-----------------------------|

[Chorus]
G|-------------------------------------------------------------|
D|-------------------------------------------------------------|
A|-5--4-5-4-5--4--2--0-2-4-2-0-----------------------------(2)-|
E|------------------------------2--0-2-0-2--0--5-----0-5-0-----|

G|------------------------------------------------------------|
D|------------------------------------------------------------|
A|-5--4-5-4-5--7--2--0-2-4-2-0--/9\-----------------0-2-4-2-0-|
E|-----------------------------------0-2-0-2--5--0------------|

G|------------------------------------------------------------|
D|------------------------------------------------------------|
A|-5--4-5-4-5--7--2--0-2-4-2-0--/9\-----------------0-2-4-2-0-|
E|-----------------------------------0-2-0-2--0--5------------|

[Break]
G|-------------------------------------------------------------|
D|-------------------------------------------------------------|
A|-5--4-5-4-5--4--2--0-2-4-2-0-----------------------------(2)-|
E|------------------------------2--0-2-0-2--0--5-----0-5-0-----|

G|------------------------------------------------------------|
D|------------------------------------------------------------|
A|-5--4-5-4-5--7--2--0-2-4-2-0--/9\-----------------0-2-4-2-0-|
E|-----------------------------------0-2-0-2--5--0------------|

G|------------------------------------------------------------|
D|------------------------------------------------------------|
A|-5--4-5-4-5--7--2--0-2-4-2-0--/9\-----------------0-2-4-2-0-|
E|-----------------------------------0-2-0-2--0--5------------|

[Outro]
G|-----------|
D|-----------|
A|---0-4---2-|
E|-2-----2---|
            
Submit corrections


        Ice Cream lessons Hard to play? Try these video lessons and learn fast Ice Cream lessons
        
↑ Back to top | Tablatures and chords for acoustic guitar and electric guitar, ukulele, drums are parodies/interpretations of the original songs. You may use it for private study, scholarship, research or language learning purposes only