Home » T » The Wombats »

The Wombats - Here Comes The Anxiety Bass

Artists:  A B C D E F G H I J K L M N O P Q R S T U V W X Y Z # 

Here Comes The Anxiety Bass

(ver. 1) Click to play this song!
The Wombats
No bass until Chorus
G|-----------------------------------------------------------------------|
D|-----------------------------------------------------------------------|
A|10-10-10-10-10-10-10-9-7-7-7-7-7-7-7-7-5-5-5-5-5-5-5-5-2-2-2-2-2-2-2-2-|
E|-----------------------------------------------------------------------|

G|----------------------------------------------------------------|
D|----------------------------------------------------------------|
A|10-10-10-10-10-10-10-10-9-7~-------9-7-5-4-5-----9-7-5-4-5------|
E|----------------------------------------------------------------|

Verse 2
G|------------------------------------------|
D|2---0-----5--5--5--5-2---0-----5--5--5--5-|
A|--------55-55-55-55----------55-55-55-55--|
E|------------------------------------------|

G|------------------------------------------------------7777|
D|0-0-0-0-2-2-2-2-5-5-5-5-4-4-4-4-2-----2-4-7~-----7777-----|
A|----------------------------------------------------------|
E|----------------------------------------------------------|

Chorus
G|------------------------------------------------------------------------|
D|------------------------------------------------------------------------|
A|10-10-10-10-10-10-10-10-7-7-7-7-7-7-7-7-5-5-5-5-5-5-5-5-7-7-7-7-9-9-9-9-|
E|------------------------------------------------------------------------|

G|--------------------------------|
D|--------------------------------|
A|10-10-10-10-10-10-10-9-7---12---|
E|--------------------------------|

Outro
G|-------------------------------------------------------------------|
D|-------------------------------------------------------------------|
A|9-7-5-4-5-000-00-9-7-5-4-5-000-00-9-7-5-4-5-000-00-9-7-5-4-5-000-00|
E|-------------------------------------------------------------------|x2

G|------------------------------------------------------------------
D|------------------------------------------------------------------
A|0~----------7~------------5~--------------------------------------
E|------------------------------------------------------------------
            
Submit corrections

↑ Back to top | Tablatures and chords for acoustic guitar and electric guitar, ukulele, drums are parodies/interpretations of the original songs. You may use it for private study, scholarship, research or language learning purposes only