» » »

The Wombats - Cheetah Tongue Tabs

Artists:  A B C D E F G H I J K L M N O P Q R S T U V W X Y Z # 

Cheetah Tongue Tabs

(ver. 1) Click to play this song!
The Wombats
 Rating:
4.3/5 (21 vote)

 Cheetah Tongue lessons Tabs too difficult? Try these video lessons and learn fast
 
                [Intro]: (How matt plays it live with bass playing the lower notes)
"I cut off my head and my cheetah tongue......"
e|---------------------------------------------------------------------------|
B|---------------------------------------------------------------------------|
G|---------------------------------------------------------------------------|
D|---------------------------------------------------------------------------|
A|--10-10-10-10-10-10-10----12-12-12-12-12-12-12----0-0-0-0-0-0-0-0----------|
E|---------------------------------------------------------------------------|  (x6)

[Intro]: (With added bass notes to make it sound better)
e|---------------------------------------------------------------------------|
B|---------------------------------------------------------------------------|
G|---------------------------------------------------------------------------|
D|---------------------------------------------------------------------------|
A|--10-10-10-10-10-10-10----12-12-12-12-12-12-12----0-0-0-0-0-0-0-0----------|
E|--12-12-12-12-12-12-12----10-10-10-10-10-10-10----9-9-9-9-9-9-9-9----------|  (x6)


[Verse]: Matt
"You won me over, my orange cola......"
e|----------------------------------------------------------------------------------------------------------|
B|----------------------------------------------------------------------------------------------------------|
G|----------------------------------------------------------------------------------------------------------|
D|---12p11----------------12p11-----------------------------------------------------------------------------|
A|--------0-0-0-0-0-0-0-0------0-0-0-0-0-0-0-0-10-10-10-10-10-10-10-10-10-10-10-10-5-5-5-5-5-5-5-5-5-5-5-5--|
E|----------------------------------------------------------------------------------------------------------|

e|----------------------------------------------------------------------------------------------------------|
B|---------------------------------------------12-12-12-12-12-12-12-12-12-12-12-12-7-7-7-7-7-7-7-7-7-7-7-7--|
G|---------------------------------------------x--x--x--x--x--x--x--x--x--x--x--x--x-x-x-x-x-x-x-x-x-x-x-x--|
D|---12p11----------------12p11----------------x--x--x--x--x--x--x--x--x--x--x--x--x-x-x-x-x-x-x-x-x-x-x-x--|
A|--------0-0-0-0-0-0-0-0------0-0-0-0-0-0-0-0-10-10-10-10-10-10-10-10-10-10-10-10-5-5-5-5-5-5-5-5-5-5-5-5--|
E|----------------------------------------------------------------------------------------------------------|

e|--------------------------------------------|
B|-14-14-14-14-14-14-14-14-14-14-14-14\-------|
G|-x--x--x--x--x--x--x--x--x--x--x--x---------|
D|-x--x--x--x--x--x--x--x--x--x--x--x---------|
A|-12-12-12-12-12-12-12-12-12-12-12-12\-------|
E|--------------------------------------------|


[Chorus]: looks difficult but its not 
"I cut off my head and my cheetah tongue.."(use your pinky with bar chord shape to hit those pull offs on G)
e|------------------x--x--x--x--x--x--x---x----------------------------|
B|------------------x--x--x--x--x--x--x---x----------------------------|
G|-9-9-9-9-9-9-9-9--11-11-11-12p11-11-11--6-6-6-6-6-6-6--6-6---7p6-6---|
D|-x-x-x-x-x-x-x-x--12-12-12-10-12-12-12--7-7-7-7-7-7-7--7-5h7-5--h7---|
A|-7-7-7-7-7-7-7-7--12-12-12-12-12-12-12--7-7-7-7-7-7-7--7-7---7---7---|
E|------------------10-10-10-10-10-10-10--5-5-5-5-5-5-5--5-5---5---5---|  (x4)


[Verse 2]: Matt
"You're a hammer, sweet firecracker......"
e|----------------------------------------------------------------------------------------------------------|
B|----------------------------------------------------------------------------------------------------------|
G|----------------------------------------------------------------------------------------------------------|
D|---12p11----------------12p11-----------------------------------------------------------------------------|
A|--------0-0-0-0-0-0-0-0------0-0-0-0-0-0-0-0-10-10-10-10-10-10-10-10-10-10-10-10-5-5-5-5-5-5-5-5-5-5-5-5--|
E|----------------------------------------------------------------------------------------------------------|

e|----------------------------------------------------------------------------------------------------------|
B|---------------------------------------------12-12-12-12-12-12-12-12-12-12-12-12-7-7-7-7-7-7-7-7-7-7-7-7--|
G|---------------------------------------------x--x--x--x--x--x--x--x--x--x--x--x--x-x-x-x-x-x-x-x-x-x-x-x--|
D|---12p11----------------12p11----------------x--x--x--x--x--x--x--x--x--x--x--x--x-x-x-x-x-x-x-x-x-x-x-x--|
A|--------0-0-0-0-0-0-0-0------0-0-0-0-0-0-0-0-10-10-10-10-10-10-10-10-10-10-10-10-5-5-5-5-5-5-5-5-5-5-5-5--|
E|----------------------------------------------------------------------------------------------------------|

e|--------------------------------------------|
B|-14-14-14-14-14-14-14-14-14-14-14-14\-------|
G|-x--x--x--x--x--x--x--x--x--x--x--x---------|
D|-x--x--x--x--x--x--x--x--x--x--x--x---------|
A|-12-12-12-12-12-12-12-12-12-12-12-12\-------|
E|--------------------------------------------|


[Chorus]: 
"I cut off my head and my cheetah tongue.."
e|------------------x--x--x--x--x--x--x---x----------------------------|
B|------------------x--x--x--x--x--x--x---x----------------------------|
G|-9-9-9-9-9-9-9-9--11-11-11-12p11-11-11--6-6-6-6-6-6-6--6-6---7p6-6---|
D|-x-x-x-x-x-x-x-x--12-12-12-10-12-12-12--7-7-7-7-7-7-7--7-5h7-5--h7---|
A|-7-7-7-7-7-7-7-7--12-12-12-12-12-12-12--7-7-7-7-7-7-7--7-7---7---7---|
E|------------------10-10-10-10-10-10-10--5-5-5-5-5-5-5--5-5---5---5---|  (x4)

"oooohh, ooohh......"
e|------------------x--x--x--x--x--x--x---x----------------------------|
B|------------------x--x--x--x--x--x--x---x----------------------------|
G|-9-9-9-9-9-9-9-9--11-11-11-12p11-11-11--6-6-6-6-6-6-6--6-6---7p6-6---|
D|-x-x-x-x-x-x-x-x--12-12-12-10-12-12-12--7-7-7-7-7-7-7--7-5h7-5--h7---|
A|-7-7-7-7-7-7-7-7--12-12-12-12-12-12-12--7-7-7-7-7-7-7--7-7---7---7---|
E|------------------10-10-10-10-10-10-10--5-5-5-5-5-5-5--5-5---5---5---|  (x4)


[Bridge]:
"oh come a little closer...."
e|--0-0-0-0-0-x-2-2-2-2-2-x-x-x-x-x-x-x-0-0-0-0-0-2-0-0-0-0-0-x-2-2-2-2-2-x-x-x-x-x-x-x-x-x-x-x-x-x-1----|
B|--0-0-0-0-0-x-2-2-2-2-2-x-2-2-2-2-2-x-0-0-0-0-0-3-0-0-0-0-0-x-2-2-2-2-2-x-2-2-2-2-2-2-2-2-2-2-2-x-0----|
G|--0-0-0-0-0-x-3-3-3-3-3-x-2-2-2-2-2-x-0-0-0-0-0-2-0-0-0-0-0-x-3-3-3-3-3-x-2-2-2-2-2-2-2-2-2-2-2-x-0----|
D|--2-2-2-2-2-x-4-4-4-4-4-x-2-2-2-2-2-x-2-2-2-2-2-0-2-2-2-2-2-x-4-4-4-4-4-x-2-2-2-2-2-2-2-2-2-2-2-x-0----|
A|--2-2-2-2-2-x-4-4-4-4-4-x-0-0-0-0-0-x-2-2-2-2-2-x-2-2-2-2-2-x-4-4-4-4-4-x-0-0-0-0-0-0-0-0-0-0-0-x-2----|
E|--0-0-0-0-0-x-2-2-2-2-2-x-x-x-x-x-x-x-0-0-0-0-0-x-0-0-0-0-0-x-2-2-2-2-2-x-x-x-x-x-x-x-x-x-x-x-x-x-3----|

e|---------------------------------------------------------------------------|
B|---------------------------------------------------------------------------|
G|---------------------------------------------------------------------------|
D|-12p11--------------------12p11--------------------------------------------|
A|-------0-0-0-0-0-0-0-0-0-0-----0-0-0-0-0-0-0-0-0-0-------------------------|
E|---------------------------------------------------------------------------|


[Chorus]: 
"I cut off my head and my cheetah tongue.."
e|------------------x--x--x--x--x--x--x---x----------------------------|
B|------------------x--x--x--x--x--x--x---x----------------------------|
G|-9-9-9-9-9-9-9-9--11-11-11-12p11-11-11--6-6-6-6-6-6-6--6-6---7p6-6---|
D|-x-x-x-x-x-x-x-x--12-12-12-10-12-12-12--7-7-7-7-7-7-7--7-5h7-5--h7---|
A|-7-7-7-7-7-7-7-7--12-12-12-12-12-12-12--7-7-7-7-7-7-7--7-7---7---7---|
E|------------------10-10-10-10-10-10-10--5-5-5-5-5-5-5--5-5---5---5---|  (x4)


[Outro]: "oooohh, ooohh......"
e|------------------x--x--x--x--x--x--x---x----------------------------|
B|------------------x--x--x--x--x--x--x---x----------------------------|
G|-9-9-9-9-9-9-9-9--11-11-11-12p11-11-11--6-6-6-6-6-6-6--6-6---7p6-6---|
D|-x-x-x-x-x-x-x-x--12-12-12-10-12-12-12--7-7-7-7-7-7-7--7-5h7-5--h7---|
A|-7-7-7-7-7-7-7-7--12-12-12-12-12-12-12--7-7-7-7-7-7-7--7-7---7---7---|
E|------------------10-10-10-10-10-10-10--5-5-5-5-5-5-5--5-5---5---5---|  (x4)            
Submit corrections


        Cheetah Tongue lessons Hard to play? Try these video lessons and learn fast Cheetah Tongue lessons
        
↑ Back to top | Tablatures and chords for acoustic guitar and electric guitar, ukulele, drums are parodies/interpretations of the original songs. You may use it for private study, scholarship, research or language learning purposes only