Home » T » The White Buffalo »

The White Buffalo - Come Join The Murder Tabs

Artists:  A B C D E F G H I J K L M N O P Q R S T U V W X Y Z # 

Come Join The Murder Tabs

(ver. 1) Click to play this song!
The White Buffalo
Capo 5th fret

r = ring

e|-----------------------------------------------------------------------------------------|
B|-----------------------------------------------------------------------------------------|
G|-----------------------------------------------------------------------------------------|
D|--------------------2^--2^--2^--2^-------------------------------------------------------|
A|-------------3---5-------------------5---3-----------------------------------------------|
E|-----3---5-----------------------------------5---3---5-----------------------------------|

e|---------------------------------3-------------------------------------------------------|
B|-------------------------3---5-------5---3-----------------------------------------------|
G|-------------2---5~5--------------------------5--4--4h5-4h5p4--5--4--2-------------------|
D|-----2---5-------------------------------------------------------------------------------|
A|-----------------------------------------------------------------------------------------|
E|-----------------------------------------------------------------------------------------|

e|--------------------------------------3---5r5r-------------------------------------------|
B|--------------------3--3--5--5-----------------------------------------------------------|
G|-----2--4--4--5--5-----------------------------------------------------------------------|
e|-----------------------------------------------------------------------------------------|
B|-----------------------------------------------------------------------------------------|
G|-----------------------------------------------------------------------------------------|

e|-----5----3-----------------------------------------------------------------------------|
B|---------------5p3----------------------------------------------------------------------|
G|----------------------2-------------5---------------------------------------------------|
e|-------------------------5r--5p2h5--------5---2r--2~-2--------------2-------------------|
B|-------------------------------------------------------5-5~-5r---5------5--3------------|
G|------------------------------------------------------------------------------5--3--5r--|            
Submit corrections

↑ Back to top | Tablatures and chords for acoustic guitar and electric guitar, ukulele, drums are parodies/interpretations of the original songs. You may use it for private study, scholarship, research or language learning purposes only