» » »

The Walker Brothers - The Sun Aint Gonna Shine Anymore Bass

Artists:  A B C D E F G H I J K L M N O P Q R S T U V W X Y Z # 

The Sun Aint Gonna Shine Anymore Bass

(ver. 1) Click to play this song!
The Walker Brothers
 Rating:
3/5 (26 votes)

 The Sun Aint Gonna Shine Anymore lessons Tabs too difficult? Try these video lessons and learn fast
 
                Intro:
G|-----------------------|-----------------
D|-16 BARS OF ORCHESTRAL-|------75------75-
A|-----AND TAMBOURINE----|-5---5---5---5---
E|-----------------------|-----------------

Verse:           (Play This Bit x2)
G|---------------------------------
D|------75------75------75------75-
A|-5---5---5---5---5---5---5---5---
E|---------------------------------

Chorus 1:
G|----------------------------------------------------------------
D|------75------75------75------75------75------75------75--------
A|-5---5---5---5---5---5---5---5---5---5---5---5---5---5----------
E|---------------------------------------------------------5-55-5-

G|----------------------------------
D|------75------75------------------
A|-5---5---5---5----7-77-7----------
E|---------------------------5-55-5-

Repeat Verse:

Chorus 2:
G|----------------------------------------------------------------
D|------75------75------75------75------75------75------75--------
A|-5---5---5---5---5---5---5---5---5---5---5---5---5---5----------
E|---------------------------------------------------------5-55-5-
                   (Break)
G|--------------------
D|------75------75----
A|-5---5---5---5----7-
E|--------------------

Bridge (Bass Solo):
G|---------------------------------------------------
D|-------------9-7-6-----------------------2--4-2----
A|-7-4-----7--------7-4---7-7---7-4----0-4---------4-
E|----5---7------------5---7-------5-----------------

Repeat Chorus 1:

Instrumental
G|-------------------------------
D|-------------------------------
A|-5-55---5-55-5---7-77-7--------
E|------------------------5-55-5-

Repeat Chorus 1 To Fade/End:

            
Submit corrections


        The Sun Aint Gonna Shine Anymore lessons Hard to play? Try these video lessons and learn fast The Sun Aint Gonna Shine Anymore lessons
        
↑ Back to top | Tablatures and chords for acoustic guitar and electric guitar, ukulele, drums are parodies/interpretations of the original songs. You may use it for private study, scholarship, research or language learning purposes only