Home » T » The Wailin Jennys »

The Wailin Jennys - Apocalypse Lullaby Tabs

Artists:  A B C D E F G H I J K L M N O P Q R S T U V W X Y Z # 

Apocalypse Lullaby Tabs

(ver. 1) Click to play this song!
The Wailin Jennys

[Intro]

   Em7        D/F#     G            
e|----------------------------------------------3----------------------------|
B|--------3---------------------0-----1---3---0-----------0------------------|
G|--------0h2------2p0------0-------0---0---0---------0-------0--------------|
D|-----2---------0--------0-------0-----------------0-------0----------------|
A|---------------------------------------------------------------------------|
E|---0---------2--------3-----3-------------------3-----3--------------------|


[Verses]

   Em7        D/F#     G
e|----------------------------------------------3----------------------------|
B|--------3---------------------0-----1---3---0-----------0------------------|
G|--------0h2------2p0------0-------0---0---0---------0-------0--------------|
D|-----2---------0--------0-------0-----------------0-------0----------------|
A|---------------------------------------------------------------------------|
E|---0---------2--------3-----3-------------------3-----3--------------------|
1:Hurricanes   will     come
2:   Spin the  speed of light
3:   Faster    than a   ship

   Em7        D/F#     G
e|----------------------------------------------3----------------------------|
B|--------3---------------------0-----1---3---0-----------0------------------|
G|--------0h2------2p0------0-------0---0---0---------0-------0--------------|
D|-----2---------0--------0-------0-----------------0-------0----------------|
A|---------------------------------------------------------------------------|
E|---0---------2--------3-----3-------------------3-----3--------------------|
1:Earthquakes break the walls
2:   Tetra   -  hedron  blue
3:   Further    than a  bomb

                  G              Gmaj7          Gadd6
e|----------------3-------3------2-------2------0-------0--------------------|
B|---------0-----------------------------------------------------------------|
G|-----0-------0------0-------0------0-------0------0-------0----------------|
D|---0-------0------0-------0------0-------0------0-------0------------------|
A|---------------------------------------------------------------------------|
E|-3-----3--------3-----3--------3-----3--------3-----3----------------------|
1:       Oceans   rise
2:  One last  paradise
3:See the glowing grid

   Em7        D/F#     G
e|----------------------------------------------3----------------------------|
B|--------3---------------------0-----1---3---0-----------0-----1---3---0----|
G|--------0h2------2p0------0-------0---0---0---------0-------0---0---0------|
D|-----2---------0--------0-------0-----------------0-------0----------------|
A|---------------------------------------------------------------------------|
E|---0---------2--------3-----3-------------------3-----3--------------------|
1:             Empires  fall
2:   You can   make for you
3:Send love throughout the throng


[Chorus]

    C       G/B    C                        C       G/B    Dadd4
e|------------------------------------------------------------------------------|
B|---1------3------/5---------5-------5-----1------3------/7---------7-------7--|
G|-------0------0-----0---0-------0-------------0------0-----0---0-------0------|
D|-----2------0-------------------------------2------0--------------------------|
A|---3------2------/3---3---3---3---3-------3------2------/5---5---5---5---5----|
E|------------------------------------------------------------------------------|
     En  -  ter     world,                  light  un   -   shown

    C       G/B    C                        C       G/B    Dadd4
e|------------------------------------------------------------------------------|
B|---1------3------/5---------5-------5-----1------3------/7---------7-------7--|
G|-------0------0-----0---0-------0-------------0------0-----0---0-------0------|
D|-----2------0-------------------------------2------0--------------------------|
A|---3------2------/3---3---3---3---3-------3------2------/5---5---5---5---5----|
E|------------------------------------------------------------------------------|
     Fol -  low    heart,                   fol -  low     home

    C       G/B    C                        C       G/B    Dadd4
e|------------------------------------------------------------------------------|
B|---1------3------/5---------5-------5-----1------3------/7---------7-------7--|
G|-------0------0-----0---0-------0-------------0------0-----0---0-------0------|
D|-----2------0-------------------------------2------0--------------------------|
A|---3------2------/3---3---3---3---3-------3------2------/5---5---5---5---5----|
E|------------------------------------------------------------------------------|
     Here   we     are,                     light  un   -  shown

    C       G/B    C                        C       G/B    Dadd4
e|------------------------------------------------------------------------------|
B|---1------3------/5---------5-------5-----1------3------/7---------7-------7--|
G|-------0------0-----0---0-------0-------------0------0-----0---0-------0------|
D|-----2------0-------------------------------2------0--------------------------|
A|---3------2------/3---3---3---3---3-------3------2------/5---5---5---5---5----|
E|------------------------------------------------------------------------------|
     One    round   heart,                  one    round   home

                    D9sus4          Dadd4
e|------------------------0-------0---------------------|
B|--------7-------7-------------------7-------7---------|
G|----0-------0-------0-------0-----------0-------0-----|
D|------------------------------------------------------|
A|--5---5---5---5---5---5---5---5---5---5---5---5---5---|
E|------------------------------------------------------|


[Outro]

   Em7        D/F#     G
e|--------------------------|
B|--------3-----------------|
G|--------0h2------2p0------|
D|-----2---------0----------|
A|--------------------------|
E|---0---------2--------3---|            
Submit corrections

↑ Back to top | Tablatures and chords for acoustic guitar and electric guitar, ukulele, drums are parodies/interpretations of the original songs. You may use it for private study, scholarship, research or language learning purposes only