Home » T » The Veronicas »

The Veronicas - When It All Falls Apart Tabs

Artists:  A B C D E F G H I J K L M N O P Q R S T U V W X Y Z # 

When It All Falls Apart Tabs

(ver. 1) Click to play this song!
The Veronicas
Tune down 1/2 step (Eb Ab Db Gb Bb Eb)


INTRO/VERSE

    D           F#m      E
e|--------------------------------------------------|
B|--------------------------------------------------|
G|--------------------------------------------------|
D|--7--7--7--7--------------------------------------|
A|--5--5--5--5--4--4--4--2--2--2--2--2--2--2--2--2--|
E|--------------2--2--2--0--0--0--0--0--0--0--0--0--|



PRE-CHORUS

    B           C#          D           F#m
e|--------------------------------------------------|
B|--------------------------------------------------|
G|--------------------------------------------------|
D|--4--4--4--4--6--6--6--6--7--7--7--7--------------|
A|--2--2--2--2--4--4--4--4--5--5--5--5--4--4--4--4--|
E|--------------------------------------2--2--2--2--|

    B           F#m      E
e|--------------------------------------------------|
B|--------------------------------------------------|
G|--------------------------------------------------|
D|--4--4--4--4--------------------------------------|
A|--2--2--2--2--4--4--4--2--2--2--2--2--2--2--2--2--|
E|--------------2--2--2--0--0--0--0--0--0--0--0--0--|



CHORUS

    A                       F#m
e|--------------------------------------------------|
B|--------------------------------------------------|
G|--2--2--2--2--2--2--2--2--------------------------|
D|--2--2--2--2--2--2--2--2--4--4--4--4--4--4--4--4--|
A|--0--0--0--0--0--0--0--0--4--4--4--4--4--4--4--4--|
E|--------------------------2--2--2--2--2--2--2--2--|

    B           F#m         D           E
e|--------------------------------------------------|
B|--------------------------3--3--3--3--------------|
G|--4--4--4--4--------------2--2--2--2--------------|
D|--4--4--4--4--4--4--4--4--0--0--0--0--2--2--2--2--|
A|--2--2--2--2--4--4--4--4--0--0--0--0--2--2--2--2--|
E|--------------2--2--2--2--------------0--0--0--0--|



SHORT BREAK AFTER CHORUS

    D                       E
e|--------------------------------------------------|
B|--------------------------------------------------|
G|--7--7--7--7--7--7--7--7--9--9--9--9--9--9--9--9--|
D|--7--7--7--7--7--7--7--7--9--9--9--9--9--9--9--9--|
A|--5--5--5--5--5--5--5--5--7--7--7--7--7--7--7--7--|
E|--------------------------------------------------|



BRIDGE

    C                       D
e|--------------------------------------------------|
B|--------------------------------------------------|
G|--5--5--5--5--5--5--5--5--7--7--7--7--7--7--7--7--|
D|--5--5--5--5--5--5--5--5--7--7--7--7--7--7--7--7--|
A|--3--3--3--3--3--3--3--3--5--5--5--5--5--5--5--5--|
E|--------------------------------------------------|

    E        F           F#m
e|--------------------------------------------------|
B|--------------------------------------------------|
G|--------------------------------------------------|
D|--2--2--2--3--3--3--3--4--4--4--4--4--4--4--4--4--|
A|--2--2--2--3--3--3--3--4--4--4--4--4--4--4--4--4--|
E|--0--0--0--1--1--1--1--2--2--2--2--2--2--2--2--2--|

    D                       Dm
e|--------------------------------------------------|
B|--7--7--7--7--7--7--7--7--6--6--6--6--6--6--6--6--|
G|--7--7--7--7--7--7--7--7--7--7--7--7--7--7--7--7--|
D|--7--7--7--7--7--7--7--7--7--7--7--7--7--7--7--7--|
A|--5--5--5--5--5--5--5--5--5--5--5--5--5--5--5--5--|
E|--------------------------------------------------|
            
Submit corrections

↑ Back to top | Tablatures and chords for acoustic guitar and electric guitar, ukulele, drums are parodies/interpretations of the original songs. You may use it for private study, scholarship, research or language learning purposes only