Home » T » The Tremeloes »

The Tremeloes - Do You Love Me Bass

Artists:  A B C D E F G H I J K L M N O P Q R S T U V W X Y Z # 

Do You Love Me Bass

(ver. 1) Click to play this song!
The Tremeloes
Do You Love Me
Originally recorded by Motown band The Contours this cover released in 
1963 by Brian Poole and the Tremeloes reached Number 1 in UK. 
Bass performance Chip Hawkes. Tab by bass50611. More or less as
Original bass line.  Comments at bass254@btimternet.com 

Intro:
  You broke my heart 'cause I couldn't dance...You didn't even want
G|-----------------------------------------------------------------|
D|-----------------------------------------------------------------|
A|-5---------------------------------------------------------------|
E|-------------------3-------------------------5-------------------|

  Me around...But Now I'm back, to let you know, that I can really
G|----------------------------------------------------------------|
D|----------------------------------------------------------------|
A|----------------------------------------------------------------|
E|---7--------------------5---------------------------------------|

  Shake 'em down...
G|--------------------------------|
D|----------------7-7-7-7-7-7-7-7-|
A|--------------------------------|
E|--------------------------------|

Chorus 1:
G|---------------------------------------------------------------------|
D|------4--4--5--5--7--7-------4--4--5--5--7--7-------4--4--5--5--7--7-|
A|-5--5-------------------5--5-------------------5--5------------------|
E|---------------------------------------------------------------------|

G|-----4--7------4--7----------------------------------|
D|-5--5------5--5--------------------------------------|
A|-----------------------------------------------------|
E|--------------------5-5-5-5-5-5-5-5--5-5-5-5-5-5-5-5-|

                    (Break)
G|---------------------|
D|---------------------|
A|---------------------|
E|-5-5-5-5-5-5-5-5---5-|

Bridge 1                                                            (Break)
G|------------------------------------------------------------------------|
D|------4--4--5--5--7--7-------4--4--5--5--7--7-------4--4--5--5--7--7----|
A|-5--5-------------------5--5-------------------5--5-------------------5-|
E|------------------------------------------------------------------------|

G|-----------------|
D|-----------------|
A|-----------------|
E|-5-5-5-5-5-5-5-5-|

Verse 1:
G|---------------------------------------------------------------------|
D|------4--4--5--5--7--7-------4--4--5--5--7--7-------4--4--5--5--7--7-|
A|-5--5-------------------5--5-------------------5--5------------------|
E|---------------------------------------------------------------------|

G|---------------------------------------------------------|
D|------4--4--5--5--7--7-----------------------------------|
A|-5--5----------------------------------------------------|
E|------------------------5-5-5-5-5-5-5-5--5-5-5-5-5-5-5-5-|

                   (Break)
G|---------------------------------|
D|---------------------------------|
A|---------------------------------|
E|-5-5-5-5-5-5-5-5---5---5-5-5-5-5-|

Chorus 2:
G|---------------------------------------------------------------------|
D|------4--4--5--5--7--7-------4--4--5--5--7--7-------4--4--5--5--7--7-|
A|-5--5-------------------5--5-------------------5--5------------------|
E|---------------------------------------------------------------------|

G|-----4--7------4--7-----------------------------------|
D|-5--5------5--5---------------------------------------|
A|------------------------------------------------------|
E|---------------------5-5-5-5-5-5-5-5--5-5-5-5-5-5-5-5-|

                    (Break)
G|---------------------|
D|---------------------|
A|---------------------|
E|-5-5-5-5-5-5-5-5---5-|

Bridge 2
G|---------------------------------------------------------------------|
D|------4--4--5--5--7--7-------4--4--5--5--7--7-------4--4--5--5--7--7-|
A|-5--5-------------------5--5-------------------5--5------------------|
E|---------------------------------------------------------------------|

  [          BASS RUN          ]
G|-------------------4-4-5-5-6-6--------------------------|
D|----4-4-5-5-6-6-7-7------------------4—7--7--5--5--7--7-|
A|-5-5----------------------------5--5--------------------|
E|--------------------------------------------------------|

                                                (Drum Break)
G|--------------------------------------------------|
D|------4--4--5--5--7--7-------4--4--5--5--7--7-----|
A|-5--5-------------------5--5--------------------5-|
E|--------------------------------------------------|

Verse 2:
G|---------------------------------------------------------------------|
D|------4--4--5--5--7--7-------4--4--5--5--7--7-------4--4--5--5--7--7-|
A|-5--5-------------------5--5-------------------5--5------------------|
E|---------------------------------------------------------------------|

G|------------------------------------------------------------|
D|------4--4--7--5--5--7--7-----------------------------------|
A|-5--5-------------------------------------------------------|
E|---------------------------5-5-5-5-5-5-5-5--5-5-5-5-5-5-5-5-|

G|--------------------------------------------------------------------|
D|--------------------------------------------------------------------|
A|--------------------------------------------------------------------|
E|-5-5-5-5-5-5-5-5--5-5-5-5-5-5-5-5--5-5-5-5-5-5-5-5--5-5-5-5-5-5-5-5-|

Chorus 3:
G|---------------------------------------------------------------------|
D|------4--4--5--5--7--7-------4--4--5--5--7--7-------4--4--5--5--7--7-|
A|-5--5-------------------5--5-------------------5--5------------------|
E|---------------------------------------------------------------------|

G|-----4--7-------4--7-----------------------------------|
D|-5--5-------5--5---------------------------------------|
A|----------------------5-5-5-5-5-5-5-5--5-5-5-5-5-5-5-5-|
E|-------------------------------------------------------|

                    (End)
G|---------------------|
D|---------------------|
A|-5-5-5-5-5-5-5-5---5-|
E|---------------------|            
Submit corrections

↑ Back to top | Tablatures and chords for acoustic guitar and electric guitar, ukulele, drums are parodies/interpretations of the original songs. You may use it for private study, scholarship, research or language learning purposes only