» » »

The The - Love Is Stronger Than Death Tabs

Artists:  A B C D E F G H I J K L M N O P Q R S T U V W X Y Z # 

Love Is Stronger Than Death Tabs

(ver. 1) Click to play this song!
The The
 Rating:
2.5/5 (25 votes)

 Love Is Stronger Than Death lessons Tabs too difficult? Try these video lessons and learn fast
 
                3rd   Gm (1x)  F (strum)  Cm (1x)   Eb (strum)  Gm     F   Cm   Eb
G |---0------0h0--------------------0----------------------------- 
D |---0------0h3---------0h5-----0--1------------0----------------
Bb|---0------0h0---------0h5-----0--0------------0----------------
F |---2------0h4---------0h7-----0--2------------2----------------
C |---2------0h5---------0h7-----0--3--------0-2-2----------------
G |---0------------------0h5-----0--3------------0----------------


Last verse before prechorus
 
      Gm       F      C     Eb
G |---0------0h0------0-----0-
D |---0------0h3------2-----1-
Bb|---0------0h0------2-----0-
F |---2------0h4------2-----2-
C |---2------0h5------4-----3-
G |---0---------------------3-


Prechorus (Here comes the blue skies, Here comes the springtime...)

      Bb     Eb      Bb     Eb      C (hit once  (strum x3) Eb
G |---3------0-------3------0-------0—and pause)--0----------0-
D |---0------1-------0------1-------2-------------0----------1-
Bb|---0------0-------0------0-------2-------------0----------0-
F |---0------2-------0------2-------2-------------0----------2-
C |---2------3-------2------3-------0-------------0----------3-
G |---3------3-------3------3---------------------0----------3-


For the chorus (Love, love, love, is stronger than death), play the verse chords again but with more force

Also, there's an interlude between 1:50 and 2:05, 
this is just Gm  Eb / Gm  Eb 
Then shoot back into the verse.

Harmonica solo transcribed for guitar:

G |-------------------------------------------------------------
D |--8--7-8-7---7----5---7-------8--7-8-7---7----5---7----------
Bb|----------------7---------------------------7----------------
F |-------------------------------------------------------------
C |-------------------------------------------------------------
G --------------------------------------------------------------

G |-------------------------------------------------------------
D |-12--10--12-10--10---7-8--10----12--10--12-10--10---7-8---10-
Bb|-12--11--12-11--11---7-9--------12--11--12-11--11---7-9------
F |-------------------------------------------------------------
C |-------------------------------------------------------------
G --------------------------------------------------------------
            
Submit corrections


        Love Is Stronger Than Death lessons Hard to play? Try these video lessons and learn fast Love Is Stronger Than Death lessons
        
↑ Back to top | Tablatures and chords for acoustic guitar and electric guitar, ukulele, drums are parodies/interpretations of the original songs. You may use it for private study, scholarship, research or language learning purposes only