» » »

The The - Good Morning Beautiful Bass

Artists:  A B C D E F G H I J K L M N O P Q R S T U V W X Y Z # 

Good Morning Beautiful Bass

(ver. 1) Click to play this song!
The The
 Rating:
4/5 (4 votes)

 Good Morning Beautiful lessons Tabs too difficult? Try these video lessons and learn fast
 
                -------------------------------------------------------------------------------
-------------------------------------------------------------------------------


Tuning: EADG


Great song this! Takes a bit for the Bass to kick in.

G|-------------------------------|
D|-------------------------------|
A|---0---2---------0---2---------| Repeat over during intro
E|----------2-------------2------|

G|-------------------------------|
D|-------------------------------|
A|--------3-2------0-2-3---------| That's it. Easy
E|---0-2-----------------2-------|
            
Submit corrections


        Good Morning Beautiful lessons Hard to play? Try these video lessons and learn fast Good Morning Beautiful lessons
        
↑ Back to top | Tablatures and chords for acoustic guitar and electric guitar, ukulele, drums are parodies/interpretations of the original songs. You may use it for private study, scholarship, research or language learning purposes only