» » »

The Tallest Man On Earth - Talk Pyramids Tabs

Artists:  A B C D E F G H I J K L M N O P Q R S T U V W X Y Z # 

Talk Pyramids Tabs

(ver. 1) Click to play this song!
The Tallest Man On Earth
 Rating:
4.4/5 (8 votes)

 Talk Pyramids lessons Tabs too difficult? Try these video lessons and learn fast
 
                [Intro]
   
F|-0--0--0-----0-|--0--0--0--0--0--0--0-|-0--0--2--0h2-0--0--0--0--0-|
A|-0--3--0-----0-|--0--0--0--0--0--0--0-|-1--0--3--3---0--1--0--0--0-|
F|-0--0--0--0--2-|--0--0--0--0--0--0--0-|-0--0--2--2---0--0--0--0--0-|
C|-2--2--2--2--4-|--0--2--0--2--0--2--0-|-2--2--0--0---0--2--0--2--0-|
A|-1--1--1-----3-|--0--1--0--1--0--1--0-|-1--1---------0--3--0--1--0-|
F|---------------|--0-----0-----0-----0-|--------------0-----0-----0-|


[Verse 1]

F|-0--0--0--0-|
A|-0--0--0--0-|
F|-0--0--0--0-|x2
C|-0--2--2--4-|
A|-0--1--1--3-|
F|-0-----2--2-|

up on the hill to see the stakes
oh my lord, don't ask me why
what if I'm just a big mistake 
oh my lord, don't ask her now


F|-0--0--0--0-|
A|-0--0--0--0-|
F|-2--0--0--0-|
C|-4--2--2--4-|
A|-3--5--1--3-|
F|-4--4-----2-|

I stumble on my thoughts sometimes 
no really, I stumble all the time

F|-0--0--0--0--0--0--0-|
A|-0--0--0--0--0--0--0-|
F|-0--0--0--0--0--0--0-|
C|-0--2--2--4--0--2--0-|
A|-0--1--1--3--0--1--0-|
F|-0-----2--2--0-----0-|

now if the echo is building up
oh my lord, let me quiet down


[Chorus]
 (first 3 chords stroked, 
returns to rhythm on fourth chord)   (same as third part of intro)
F|-0--0--0--0--0--0--0--0--0--0--0-|-0--0--2--0h2-0--0--0--0--0-|
A|-0--1--3--3--0--0--0--0--0--0--0-|-1--0--3--3---0--1--0--0--0-|
F|-0--0--0--0--0--0--0--0--0--0--0-|-0--0--2--2---0--0--0--0--0-|
C|-0--0--0--2--4--0--2--2--0--2--0-|-2--2--0--0---0--2--0--2--0-|
A|-0--0--0--1--3--0--1--3--0--1--0-|-1--1---------0--3--0--1--0-|
F|-------------2--------4--0-----0-|--------------0-----0-----0-|

I run for the nearest drink of light
boy keep it on, just get it right
I ramble through the day
talk pyramids at night 
some dance in this broken light


[Verse2] - same as Verse 1

up on the hill to meet the day
oh my lord, don't watch me now
what is so far it cannot see
what's so near with hungry eyes

I fear what you don't see in me
no really, I fear the things you find
windmills in front of wind machines 
oh my lord, what a wicked time


[Chorus] - same as first chorus, except second part (the instrumental) is repeated twice. 

I run for the nearest drink of light
boy keep it on, but get it right
I ramble through the day
talk pyramids at night 
some dance in this broken light


[Verse3] - slight change from other verse, first chord in first part changes

F|-0--0--0--0-|
A|-0--0--0--0-|
F|-0--0--0--0-| x2
C|-2--2--2--4-|
A|-5--1--1--3-|
F|-4-----2--2-|

and down in the valley hear them sing
oh my lord, let's get alright
the last run just like the first it seems
oh my lord, this endless mile


F|-0--0--0--0-|
A|-0--0--0--0-|
F|-2--0--0--0-|
C|-4--2--2--4-|
A|-3--5--1--3-|
F|-4--4-----2-|

I wake up in your love sometimes
no really, I get it all the time


F|-0--0--0--0--0--0--0-|
A|-0--0--0--0--0--0--0-|
F|-0--0--0--0--0--0--0-|
C|-0--2--2--4--0--2--0-|
A|-0--1--1--3--0--1--0-|
F|-0-----2--2--0-----0-|

like waves to my body in the sea 
oh my lord, when I quiet down


[Chorus] - same as second chorus

so stay in the weather of your flight
but keep it on, just get it right
I ramble through the day
talk pyramids at night 
I sound like this broken light


            
Submit corrections


        Talk Pyramids lessons Hard to play? Try these video lessons and learn fast Talk Pyramids lessons
        
↑ Back to top | Tablatures and chords for acoustic guitar and electric guitar, ukulele, drums are parodies/interpretations of the original songs. You may use it for private study, scholarship, research or language learning purposes only