Home » T » The Submarines »

The Submarines - Xavia Tabs

Artists:  A B C D E F G H I J K L M N O P Q R S T U V W X Y Z # 

Xavia Tabs

(ver. 1) Click to play this song!
The Submarines
hey, this is my first tab. i learned it all by ear.
i decided to make a tab since no one else has made one for this song.
I'm like 99.99% sure that this tab is right.
rate and comment if you want.



Tuning: Standard
Effects: Overdrive
Guitars: 1

Intro/Mini Riff: (first like 15 seconds)
e|------------------------------------------------------------------|
B|---9-----------------------------9--------------------------------|
G|-----9~----11--9-8-9---------------9~-----11-9-11~----------------|
D|----------------------(x2)----------------------------------------|
A|------------------------------------------------------------------|
E|------------------------------------------------------------------|


Intro/Verse*: (when he starts to sing)
     E      A     B
e|----------5---------------------------------------------------------|
B|---9------5-----7---------------------------------------------------|
G|---9------6-----8---------------------------------------------------|
D|---9------7-----9---------------------------------------------------|
A|---7------7-----9---------------------------------------------------|
E|----------5-----7---------------------------------------------------|

*repeat through whole song. this is the main chord riff for the verses. plam mute for 
quietier parts.


Chorus**:
e|------------------------------------------------------------------|
B|------------------------------------------------------------------|
G|------------------------------------------------------------------|
D|-99-77-6666---77-6--44-222---/99-77-6666---6-77--7-99-------------|
A|------------------------------------------------------------------|
E|------------------------------------------------------------------|

**repeat through whole chorus.


Ending***:
e|------------------------------------------------------------------|
B|------------5---5-----5---5---------------------------------------|
G|--9---9-------6---6-----8---8-----8--999---9--11-11-11------------|
D|----9---9---------------------------------------------------------|
A|------------------------------------------------------------------|
E|------------------------------------------------------------------|

***whole ending. just repeat until it fades/ends.


~| Let ring
/| Slide down


questions/concerns/comments?
username: iloveher1773
            
Submit corrections

↑ Back to top | Tablatures and chords for acoustic guitar and electric guitar, ukulele, drums are parodies/interpretations of the original songs. You may use it for private study, scholarship, research or language learning purposes only