Home » T » The Streets »

The Streets - Too Much Brandy Bass

Artists:  A B C D E F G H I J K L M N O P Q R S T U V W X Y Z # 

Too Much Brandy Bass

(ver. 1) Click to play this song!
The Streets
Bass guitar
Verse
G |-------------------------------------------|
D |o-----------------------------------------o|
A |o--5---5----5---5----5---5----5---7-8-----o|
E |---------------------------------------5---|

Chorus
G |-------------------------|-----------------------------|
D |--0-0---5-5---3-3---0-0--|--0-0---5-5---3-3------------|
A |-------------------------|--------------------5--7-8---|
E |-------------------------|---------------------------5-|


Piano arranged for bass guitar(I’m not sure about this bit)
G |---22--21----------22--21-------|
D |o----------22--------------22--o|
A |o--------------22--------------o|
E |--------------------------------|
            
Submit corrections

↑ Back to top | Tablatures and chords for acoustic guitar and electric guitar, ukulele, drums are parodies/interpretations of the original songs. You may use it for private study, scholarship, research or language learning purposes only