» » »

The Story So Far - Daughters Tabs

Artists:  A B C D E F G H I J K L M N O P Q R S T U V W X Y Z # 

Daughters Tabs

(ver. 1) Click to play this song!
The Story So Far
 Rating:
3.7/5 (6 votes)


 Daughters lessons Tabs too difficult? Try these video lessons and learn fast
 
                -------------------------------------------------------------------------------
                             DAUGHTERS - THE STORY SO FAR
-------------------------------------------------------------------------------

Tuning: standard (EADGBe)

This is my first tab but don't be afraid to give me feedback, especially since I did
this in like 20 minutes. I just always get frustrated by this song so I sat down and really
listened to it. Minus the extra guitar, this is very close for the acoustic version. 
Please message me if you think anything sounds wrong.

I tabbed this from the only known recording of them doing this acoustically

Verse 1:

Before you twist your tongue
Know there's no chance at all
Came here against my will
And my wills tested strong

Until now, I know we've never met
But I don't want to talk and I'm already upset
That you'll meet your demise in a drunken man's bet
Take another pull to make certain you forget

e|--3-------------3----------------------------------------------------------|
B|--3-------------3----------------------------------------------------------|
G|--0-------------0------------X8--------------------------------------------|
D|--2-------------2----------------------------------------------------------|
A|--2-------------0----------------------------------------------------------|
E|--0-------------0----------------------------------------------------------|

Pre-chorus:

And to think that you're somebody's daughter
Away at college not getting smarter

~This entire section is a G chord, with strings 3&4 muted. It is the same strumming.
Listen to the acoustic version and you'll get it quite easily.~




Verse 2:

Everything changes when all the lights in the room are as low as you,
But don't trip you'll sober up soon
Regain an honest perspective as you puke on the floor
Can't remember why your knees are so cut up and sore

e|--3-------------3----------------------------------------------------------|
B|--3-------------3----------------------------------------------------------|
G|--0-------------0------------X4--------------------------------------------|
D|--2-------------2----------------------------------------------------------|
A|--2-------------0----------------------------------------------------------|
E|--0-------------0----------------------------------------------------------|

Outro:

And you'll be hung over all day. (all day! all day!)
You'll be hung over all day. (all day! all day!)
You'll be hung over all day. (all day! all day!)
You'll be hung over all day. (all day! all day!)
You'll be hung over all day. (all day! all day!)



e|--3------3------3------3---------------------------------------------------|
B|--3------3------3------3---------------------------------------------------|
G|--0------0------0------0--------x5-----------------------------------------|
D|--2------0------0------0---------------------------------------------------|
A|--2------2------2------2---------------------------------------------------|
E|--0------3------3------3---------------------------------------------------|

Ends on a G chord, open or however you think it sounds best.
Hope this was helpful!
************************************

| /   slide up
| \   slide down
| h   hammer-on
| p   pull-off
| ~   vibrato
| +   harmonic
| x   Mute note
| b   Bend
| pb  Pre-bend
| br  Bend release
| pbr Pre-bend release
| brb Bend release bend

************************************
            
Submit corrections



        Daughters lessons Hard to play? Try these video lessons and learn fast Daughters lessons
        
↑ Back to top | Tablatures and chords for acoustic guitar and electric guitar, ukulele, drums are parodies/interpretations of the original songs. You may use it for private study, scholarship, research or language learning purposes only