Home » T » The Speaks »

The Speaks - Never See Me Cry Tabs

Artists:  A B C D E F G H I J K L M N O P Q R S T U V W X Y Z # 

Never See Me Cry Tabs

(ver. 1) Click to play this song!
The Speaks
 Rating:
4.2/5 (5 votes)
                



Song              : Never See Me Cry
Band              : The Speaks
Cp No.            : 09157906477/09186243757
Guitar Tuning     : Standard
Brandon’s Guitar  : RJ



Intro&Verse:(00:00-01:14)
e----------|-----------|-----------|-------------|
b-----3----|------3----|------0----|-------------|
g--2---2-0-|---2---2-0-|---0---0-0-|----2-----0--|
d-0-0---0--|----0---0--|----0---0--|---3----3--3-|
a----------|-----------|-----------|-3----3------|
E----------|-1---------|-3---------|-1----1------|


Chorus:(01:15-01:30)
“just listen to the cd for the strumming,may palm nute din dito”
e----------|-----------|-----------|-----------|
b----------|-----------|-----------|-----------|
g-----7----|-----------|-----5-----|-----------|
d-----7----|-----7-----|-----5-----|-----5-----|
a-----5----|-----7-----|-----3-----|-----5-----|
E----------|-----5-----|-----------|-----3-----|

Verse 2:
Gtr 1:
e----------|-----------|-----------|-------------|   \
b-----3----|------3----|------0----|-------------|    \
g--2---2-0-|---2---2-0-|---0---0-0-|----2-----0--|     \
d-0-0---0--|----0---0--|----0---0--|---3----3--3-|(5x)  \
a----------|-----------|-----------|-3----3------|       \
E----------|-1---------|-3---------|-1----1------|        \
                                                          |                                        
Gtr 2:                                                    |                                           
e----------|-----------|-----------|-------------|        /       
b----------|-----------|-----------|-------------|       /
g----------|-----------|-----------|-7-/9-7~~----|      /
d----------|-----------|-----------|-------------|(1x) /
a----------|-----------|-----------|-------------|    /
E----------|-----------|-----------|-------------|   /

Repeat Chorus 6x:

Then..
Gtr 2:(3:12-3:26)
e--------------------------------------------------------------------------------------------|
b--------------------------------------------------------------------------------------------|
g-7-7-9-9/10---10-9-7---9-10-10/12---10-9-5/7---7-9-10---9-10-12-12-12-12-12-12b-12b-12b-12b-|
d--------------------------------------------------------------------------------------------|
a--------------------------------------------------------------------------------------------|
E--------------------------------------------------------------------------------------------|

Repeat Chorus 6x:

That’s all!!!Rock on!!!!!! f**k!!!!!!

--ROCK RULEZ--
            
Submit corrections

↑ Back to top | Tablatures and chords for acoustic guitar and electric guitar, ukulele, drums are parodies/interpretations of the original songs. You may use it for private study, scholarship, research or language learning purposes only