Home » T » The Speaks »

The Speaks - Bizaare Love Triangle Tabs

Artists:  A B C D E F G H I J K L M N O P Q R S T U V W X Y Z # 

Bizaare Love Triangle Tabs

(ver. 1) Click to play this song!
The Speaks
 Rating:
4.3/5 (6 votes)
                Tuning: drop-D


Intro:

e|--------------|----0------|----0------|----0----|
B|-0h1-1---1----|---3--3----|---2--2----|---1-1---|
G|-2----2---2---|--4----4---|--4----4---|--2---2--|
D|-3---------3--|-5------5--|-2------2--|-3-----3-|
A|--------------|-----------|-----------|---------|
D|--------------|-----------|-----------|---------|


e|--------------|----5------|----0------|----0----|
B|-0h1-1---1----|---3--3----|---2--2----|---1-1---|
G|-2----2---2---|--4----4---|--4----4---|--2---2--|
D|-3---------3--|-5------5--|-2------2--|-3-----3-|
A|--------------|-----------|-----------|---------|
D|--------------|-----------|-----------|---------|   

Verse 1:
e|--------------|----0------|----0------|----0----|
B|-0h1-1---1----|---3--3----|---2--2----|---1-1---|
G|-2----2---2---|--4----4---|--4----4---|--2---2--|
D|-3---------3--|-5------5--|-2------2--|-3-----3-|
A|--------------|-----------|-----------|---------|
D|--------------|-----------|-----------|---------|


e|--------------|----5------|----0------|----0----|
B|-0h1-1---1----|---3--3----|---2--2----|---1-1---|
G|-2----2---2---|--4----4---|--4----4---|--2---2--|
D|-3---------3--|-5------5--|-2------2--|-3-----3-|
A|--------------|-----------|-----------|---------|
D|--------------|-----------|-----------|---------|   2x


Verse 2:
e|--------------------------------|
B|--------------------------------|
G|--------------------------------|
D|--------------------------3-3---|
A|--3-3---3-3---3-3---3-3---3-3---|
D|--3-3---3-3---3-3---3-3---3-3---|


e|--------------------------------|
B|--------------------------------|
G|--------------------------------|
D|--------------------------5-5---|
A|--5-5---5-5---5-5---5-5---5-5---|
D|--5-5---5-5---5-5---5-5---5-5---|


e|--------------------------------|
B|--------------------------------|
G|--------------------------------|
D|--------------------------2-2---|
A|--2-2---2-2---2-2---2-2---2-2---|
D|--2-2---2-2---2-2---2-2---2-2---|


e|--------------------------------|
B|--------------------------------|
G|--------------------------------|
D|--------------------------3-3---|
A|--3-3---3-3---3-3---3-3---3-3---|
D|--3-3---3-3---3-3---3-3---3-3---|   6x

Chorus:


e|-----------------------------------------------|
B|-----------------------------------------------|
G|-----------------------------------------------|
D|--3-3-3-3-----5-5-5-5-----2-2-2-2-----3-3-3-3--|
A|--3-3-3-3-----5-5-5-5-----2-2-2-2-----3-3-3-3--|
D|--3-3-3-3-----5-5-5-5-----2-2-2-2-----3-3-3-3--|   2x



Adlib:
e|---8--8---8--8--8---10-10-10---8--8--8---8--8---8--8--8---10-10-10---------|
B|---10-10--10-10-10--10-10-10---10-10-10--10-10--10-10-10--10-10-10---------|
G|---------------------------------------------------------------------------|
D|---------------------------------------------------------------------------|
A|---------------------------------------------------------------------------|
D|---------------------------------------------------------------------------|


e|---8--8--8--12-12--12-12-12-10-10--8----8--8--8--12-12--12-12-12-10-10--8--|
B|---10-10-10-10-10--10-10-10-10-10--10---10-10-10-10-10--10-10-10-10-10--10-|
G|---------------------------------------------------------------------------|
D|---------------------------------------------------------------------------|
A|---------------------------------------------------------------------------|
D|---------------------------------------------------------------------------|

Chorus:

e|--------------|----0------|----0------|----0----|
B|-0h1-1---1----|---3--3----|---2--2----|---1-1---|
G|-2----2---2---|--4----4---|--4----4---|--2---2--|
D|-3---------3--|-5------5--|-2------2--|-3-----3-|
A|--------------|-----------|-----------|---------|
D|--------------|-----------|-----------|---------|


e|--------------|----0------|----0------|----0----|
B|-0h1-1---1----|---3--3----|---2--2----|---1-1---|
G|-2----2---2---|--4----4---|--4----4---|--2---2--|
D|-3---------3--|-5------5--|-2------2--|-3-----3-|
A|--------------|-----------|-----------|---------|
D|--------------|-----------|-----------|---------|   2x


Chorus:

e|-----------------------------------------------|
B|-----------------------------------------------|
G|-----------------------------------------------|
D|--3-3-3-3-----5-5-5-5-----2-2-2-2-----3-3-3-3--|
A|--3-3-3-3-----5-5-5-5-----2-2-2-2-----3-3-3-3--|
D|--3-3-3-3-----5-5-5-5-----2-2-2-2-----3-3-3-3--|   4x


Last Part (chorus)


e|--------------|----0------|----0------|----0----|
B|-0h1-1---1----|---3--3----|---2--2----|---1-1---|
G|-2----2---2---|--4----4---|--4----4---|--2---2--|
D|-3---------3--|-5------5--|-2------2--|-3-----3-|
A|--------------|-----------|-----------|---------|
D|--------------|-----------|-----------|---------|


e|--------------|----0------|----0------|----0----|
B|-0h1-1---1----|---3--3----|---2--2----|---1-1---|
G|-2----2---2---|--4----4---|--4----4---|--2---2--|
D|-3---------3--|-5------5--|-2------2--|-3-----3-|
A|--------------|-----------|-----------|---------|
D|--------------|-----------|-----------|---------|   


Justin Alaro
St Benilde School, Bacolod City
            
Submit corrections

↑ Back to top | Tablatures and chords for acoustic guitar and electric guitar, ukulele, drums are parodies/interpretations of the original songs. You may use it for private study, scholarship, research or language learning purposes only