» » »

The Script - The Last Time Tabs

Artists:  A B C D E F G H I J K L M N O P Q R S T U V W X Y Z # 

The Last Time Tabs

(ver. 1) Click to play this song!
The Script
 Rating:
4.3/5 (29 votes)

 The Last Time lessons Tabs too difficult? Try these video lessons and learn fast
 
                [Intro]

E|---------------------------------------------------------------------------|
B|---------------------------------------------------------------------------|
G|---------------------------------------------------------------------------|
D|-----0-------0------0------0-----0--------0--------0-----------------------|
A|---------------------------------------------------------------------------|
D|--4-----4---h5---5------0-----0-------0-------0----------------------------| x3

E|---------------------------------------------------------------------------|
B|---------------------------------------------------------------------------|
G|---------------------------------------------------------------------------|
D|-----0-------0------0------0-----0--------0--------0-----------------------|
A|---------------------------------------------------------------------------|
D|--9-----9---p7---7------5-----5-------5-------5----------------------------|


[Verse 1]

E|---------------------------------------------------------------------------|
B|---------------------------------------------------------------------------|
G|---------------------------------------------------------------------------|
D|-----0-------0------0------0-----0--------0--------0-----------------------|
A|---------------------------------------------------------------------------|
D|--4-----4---h5---5------0-----0-------0-------0----------------------------| x3

E|---------------------------------------------------------------------------|
B|---------------------------------------------------------------------------|
G|---------------------------------------------------------------------------|
D|-----0-------0------0------0-----0--------0--------0-----------------------|
A|---------------------------------------------------------------------------|
D|--9-----9---p7---7------5-----5-------5-------5----------------------------|


[Pre-Chorus]

E|---------------------------------------------------------------------------|
B|---------------------------------------------------------------------------|
G|---------------------------------------------------------------------------|
D|-----0----0-----0-----0-----0------0------0------0-------------------------|
A|---------------------------------------------------------------------------|
D|--0----0-----0-----0----0------0-------0------0----------------------------|

E|---------------------------------------------------------------------------|
B|---------------------------------------------------------------------------|
G|---------------------------------------------------------------------------|
D|-----0----0-----0-----0-----0------0------0------0-------------------------|
A|---------------------------------------------------------------------------|
D|--7----7-----7-----7----7------7-------7------7----------------------------|

E|---------------------------------------------------------------------------|
B|---------------------------------------------------------------------------|
G|---------------------------------------------------------------------------|
D|-----0----0-----0-----0-----0------0------0------0-------------------------|
A|---------------------------------------------------------------------------|
D|---9---9-----9-----9----9------9-------9------9----------------------------|

E|---------------------------------------------------------------------------|
B|---------------------------------------------------------------------------|
G|---------------------------------------------------------------------------|
D|-----0----0-----0-----0-----0------0------0------0-------------------------|
A|---------------------------------------------------------------------------|
D|---5---5-----5-----5----5------5-------5------5----------------------------|

[Chorus]

E|---------------------------------------------------------------------------|
B|---------------------------------------------------------------------------|
G|---------------------------------------------------------------------------|
D|-----0----0-----0-----0-----0------0------0------0-------------------------|
A|---------------------------------------------------------------------------|
D|--7----7-----7-----7----7------7-------9------9----------------------------|

E|---------------------------------------------------------------------------|
B|---------------------------------------------------------------------------|
G|---------------------------------------------------------------------------|
D|-----0----0-----0-----0-----0------0------0------0-------------------------|
A|---------------------------------------------------------------------------|
D|--5----5-----5-----5----5------5-------4------4----------------------------|

Play this throughout Chorus or play A Bm G as barre chords but mute the bottom D string

[Verse 2]

E|---------------------------------------------------------------------------|
B|---------------------------------------------------------------------------|
G|---------------------------------------------------------------------------|
D|-----0-------0------0------0-----0--------0--------0-----------------------|
A|---------------------------------------------------------------------------|
D|--4-----4---h5---5------0-----0-------0-------0----------------------------| x3

E|---------------------------------------------------------------------------|
B|---------------------------------------------------------------------------|
G|---------------------------------------------------------------------------|
D|-----0-------0------0------0-----0--------0--------0-----------------------|
A|---------------------------------------------------------------------------|
D|--9-----9---p7---7------5-----5-------5-------5----------------------------|

[Pre-Chorus]

E|---------------------------------------------------------------------------|
B|---------------------------------------------------------------------------|
G|---------------------------------------------------------------------------|
D|-----0----0-----0-----0-----0------0------0------0-------------------------|
A|---------------------------------------------------------------------------|
D|--0----0-----0-----0----0------0-------0------0----------------------------|

E|---------------------------------------------------------------------------|
B|---------------------------------------------------------------------------|
G|---------------------------------------------------------------------------|
D|-----0----0-----0-----0-----0------0------0------0-------------------------|
A|---------------------------------------------------------------------------|
D|--7----7-----7-----7----7------7-------7------7----------------------------|

E|---------------------------------------------------------------------------|
B|---------------------------------------------------------------------------|
G|---------------------------------------------------------------------------|
D|-----0----0-----0-----0-----0------0------0------0-------------------------|
A|---------------------------------------------------------------------------|
D|---9---9-----9-----9----9------9-------9------9----------------------------|

E|---------------------------------------------------------------------------|
B|---------------------------------------------------------------------------|
G|---------------------------------------------------------------------------|
D|-----0----0-----0-----0-----0------0------0------0-------------------------|
A|---------------------------------------------------------------------------|
D|---5---5-----5-----5----5------5-------5------5----------------------------|


[Chorus]

E|---------------------------------------------------------------------------|
B|---------------------------------------------------------------------------|
G|---------------------------------------------------------------------------|
D|-----0----0-----0-----0-----0------0------0------0-------------------------|
A|---------------------------------------------------------------------------|
D|--7----7-----7-----7----7------7-------9------9----------------------------|

E|---------------------------------------------------------------------------|
B|---------------------------------------------------------------------------|
G|---------------------------------------------------------------------------|
D|-----0----0-----0-----0-----0------0------0------0-------------------------|
A|---------------------------------------------------------------------------|
D|--5----5-----5-----5----5------5-------4------4----------------------------|            
Submit corrections


        The Last Time lessons Hard to play? Try these video lessons and learn fast The Last Time lessons
        
↑ Back to top | Tablatures and chords for acoustic guitar and electric guitar, ukulele, drums are parodies/interpretations of the original songs. You may use it for private study, scholarship, research or language learning purposes only