» » »

The Script - Arms Open Tabs

Artists:  A B C D E F G H I J K L M N O P Q R S T U V W X Y Z # 

Arms Open Tabs

(ver. 1) Click to play this song!
The Script
 Rating:
4.3/5 (23 votes)

 Arms Open lessons Tabs too difficult? Try these video lessons and learn fast
 
                 D#    A#    G#
e|--6-----6-----4--|
B|--8-----6-----4--|
G|--8-----7-----5--|
D|--8-----8-----6--|
A|--6-----8-----6--|
E|--------6-----4--|



[Intro]

p.m. . . . . . . . . . . . . . . . 

e|--------------------------------|
B|--------------------------------|
G|--------------------------------|
D|--8--------------8--10--12--10--| x2
A|--6--6--6--6--6--6--8---10--8---|
E|--------------------------------|


[Verse]


I can't unfeel...
p.m. . . . . . . . . . . . . . . . 

e|--------------------------------|
B|--------------------------------|
G|--------------------------------|
D|--8--------------8--10--12--10--| x3
A|--6--6--6--6--6--6--8---10--8---|
E|--------------------------------|


... but if i could...
p.m. . . . . . . . . . . . . . . . . . . . . . . . . . . . . . . . . . . . .

E|--------------------------------------------------------------------------|
B|--------------------------------------------------------------------------|
G|--------------------------------------------------------------------------|
D|--------------------------------------------------------------------------|
A|--6--6--6--6--6--6--6--6--------------------------------------------------|
E|--------------------------4--4--4--4--4--4--4--4--4--4--4--4--4--4--4--4--|

[Chorus]
(All chords are palm muted)


D#                                 A#
Oh, and when you're cursing at the sky

                         G#
And thinking, "lord, you must be joking"

D#
My arms are open

D#                                  A#
And, and when you're looking in the mirror

                             G# 
Thinking that, "my life is over"

              D#
My arms are open

D#
My arms are open (oh, oh)

A#
My arms are open (oh, oh)

G#
My arms are open (oh, oh)

D#
My arms are open (oh, oh)

[Rest of song]            
Submit corrections


        Arms Open lessons Hard to play? Try these video lessons and learn fast Arms Open lessons
        
↑ Back to top | Tablatures and chords for acoustic guitar and electric guitar, ukulele, drums are parodies/interpretations of the original songs. You may use it for private study, scholarship, research or language learning purposes only