Home » T » The Scene Aesthetic »

The Scene Aesthetic - This Is A Suile Valedictory Tabs

Artists:  A B C D E F G H I J K L M N O P Q R S T U V W X Y Z # 

This Is A Suile Valedictory Tabs
Version #1
The Scene Aesthetic


Copy URL
GUITAR 1

Intro
e|-x--x--x--------------------------|
B|-x--x--x----5h7p5h7----5h7p5h7----|
G|-x--x--x----7-7-7-7----7-7-7-7----|
D|-x--x--x--------------------------|
A|-x--x--x--------------------------|
E|-x--x--x----x-x-x-x----x-x-x-x----|

e|-----------------|
B|------5----3-----|
G|--7---6----4-----|
D|--7--------------|
A|--x---x----x-----|
E|--7---5----3-----|x2


GUITAR 2
e|--5-----------------10--9s7s5-------------|
B|----5h7p5s3--5--7-------------5h7p5s3-----|
G|------------------------------------------|
D|------------------------------------------|
A|------------------------------------------|
E|------------------------------------------|x2


Verse
e|--------------------------5--|
B|----5h7p5h7----5h7p5h7----7--|
G|----7-7-7-7----7-7-7-7----7--|
D|-----------------------------|
A|-----------------------------|
E|----x-x-x-x----x-x-x-x----x--|


e|----------------|
B|-------5----3---|
G|--7----6----4---|
D|--7-------------|
A|--x----x----x---|
E|--7----5----3---|x4


Pre Chorus
e|--------------|
B|--3---3---3---|
G|--2---2---2---|
D|--x-----------|
A|--2---x---x---|
E|------2---3---|x2


Chrous

e|---------------|
B|--3--3--3--3---|
G|--2--2--2--2---|
D|--------x------|
A|--x--x--2--x---|
E|--3--2-----2---|x2

End Chorus
e|-----|
B|--3--|
G|--2--|
D|-----|
A|-----|
E|--3--|


Repeat Intro


Verse 2

Guitar 1

e|---------------------------|
B|-----5h7p5h7----5h7p5h7----|
G|-----7-7-7-7----7-7-7-7----|
D|---------------------------|
A|---------------------------|
E|-----x-x-x-x----x-x-x-x----|

e|-----------------|
B|------5----3-----|
G|--7---6----4-----|
D|--7--------------|
A|--x---x----x-----|
E|--7---5----3-----|x4


GUITAR 2
e|--5-----------------10--9s7s5-------------|
B|----5h7p5s3--5--7-------------5h7p5s3-----|
G|------------------------------------------|
D|------------------------------------------|
A|------------------------------------------|
E|------------------------------------------|x4


Repeat Pre Chorus

Repeat Chorus


Breakdown
e|-------------|
B|--5--5---3---|
G|--7--6---4---|
D|-------------|
A|-------------|
E|-----5---3---|x4

Then

2nd Breakdown part

e|------------------------------------------------------------|
B|-------3-------------3-------------3-------3------3---------|
G|-----2---2---------2---2---------2---2-------2------2-------|
D|-----------0-----0-------0-----0-------0-------0------0-----|
A|---2---------0-------------0--------------------------------|
E|-0-------------2-------------3------------------------------|

e|--------------------------------|
B|-------3-------------3-------3--|
G|-----2---2---------2---2-----2--|
D|-----------0-----0-------0------|
A|---2---------0------------------|
E|-0-------------2-------------3--|


Chours
e|---------------|
B|--3--3--3--3---|
G|--2--2--2--2---|
D|--------x------|
A|--x--x--2--x---|
E|--3--2-----2---|x4


ENd on

e|-----|
B|--3--|
G|--2--|
D|-----|
A|--x--|
E|--3--|
            
Submit corrections

↑ Back to top | Tablatures and chords for acoustic guitar and electric guitar, ukulele, drums are parodies/interpretations of the original songs. You may use it for private study, scholarship, research or language learning purposes only