» » »

The Raconteurs - Yellow Sun Bass

Artists:  A B C D E F G H I J K L M N O P Q R S T U V W X Y Z # 

Yellow Sun Bass

(ver. 1) Click to play this song!
The Raconteurs
 Rating:
4/5 (4 votes)


 Yellow Sun lessons Tabs too difficult? Try these video lessons and learn fast
 
                Bassist:  Jack Lawrence

Tuning: EADG (Standard)

Intro, Verse pt 1 (0:16)
g|----------------|----------------|
d|-----------5-7--|-----------5-7--|
a|------45-7------|------45-7------|
e|--5-5-----------|--5-5-----------|x4

Verse pt 2 (0:33) "My actions are dictated..."
g|------------|--------------|--------------|
d|------------|--------7-5---|--------7-5---|
a|--5---------|-----45-----7-|-----45-----7-|
e|-------7----|-5-7----------|-5-7----------|

Verse pt 1 (0:39) "The sun it isn't hiding..."
g|----------------|---------------|
d|-----------5-7--|----------5-7--|
a|------45-7------|-----45-7------|
e|--5-5-----------|-5-5-----------|x2

Verse pt 2 (0:48) "Waiting for the darkness now..."
g|------------|--------------|--------------|
d|------------|--------7-5---|--------7-5---|
a|--5---------|-----45-----7-|-----45-----7-|
e|-------7----|-5-7----------|-5-7----------|

Interlude (?) (0:54)
g|--------------|-------------|
d|--------------|-------------|
a|----4-5-7-5-4-|---4-5-7-9-7-|
e|--7-----------|-7-----------|x1

Verse pt 1 (0:58)
g|----------------|---------------|
d|-----------5-7--|----------5-7--|
a|------45-7------|-----45-7------|
e|--5-5-----------|-5-5-----------|x3

Verse pt 2 (1:11) "The setting sun's the only thing..."
g|------------|--------------|--------------|
d|------------|--------7-5---|--------7-5---|
a|--5---------|-----45-----7-|-----45-----7-|
e|-------7----|-5-7----------|-5-7----------|

Chorus (1:18) "You're makin' me hungry..."
g|------------------------------------------------------------------|
d|--------------------------------------------2-/55555555\----------|
a|--33333333/77777775\33333333/77777775\333333-3----------55555555--|
e|------------------------------------------------------------------|

Bridge (1:33)
g|--------------|-------------|-------------|-------------|------|
d|--------------|-------------|-------------|-------------|------|
a|----4-5-7-5-4-|---4-5-7-5-4-|---4-5-7-5-4-|---4-5-7-9-5-|------|
e|--7-----------|-7-----------|-7-----------|-7-----------|-5----|

*Break*

Verse pt 2 (1:59) "And the only thing that's left for me..."
g|------------|--------------|--------------|
d|------------|--------7-5---|--------7-5---|
a|--5---------|-----45-----7-|-----45-----7-|
e|-------7----|-5-7----------|-5-7----------|

Chorus (2:06) "You're makin' me hungry..."
g|------------------------------------------------------------------|
d|--------------------------------------------2-/55555555\----------|
a|--33333333/77777775\33333333/77777775\333333-3----------55555555--|
e|------------------------------------------------------------------|x2

Bridge (2:36)
g|--------------|-------------|-------------|-------------|------|
d|--------------|-------------|-------------|-------------|------|
a|----4-5-7-5-4-|---4-5-7-5-4-|---4-5-7-5-4-|---4-5-7-9-5-|------|
e|--7-----------|-7-----------|-7-----------|-7-----------|-5----|

*Break*

Outro (2:53) "It's not sunny anymore..."
g|------------|--------------|--------------|
d|------------|--------7-5---|--------7-5---|
a|--5---------|-----45-----7-|-----45-----7-|
e|-------7----|-5-7----------|-5-7----------|x2

---------------------------------------------
| /  slide up
| \  slide down
| h  hammer-on
| p  pull-off
| ~  vibrato
| +  harmonic
| x  Mute note
---------------------------------------------

And there you have it.  Once you get the timing down, the song isn't very difficult at 
 If you have any concerns or questions, please comment and I'll do my best to answer/address.

Please rate this, it is my second tab.  Thanks :)
            
Submit corrections



        Yellow Sun lessons Hard to play? Try these video lessons and learn fast Yellow Sun lessons
        
↑ Back to top | Tablatures and chords for acoustic guitar and electric guitar, ukulele, drums are parodies/interpretations of the original songs. You may use it for private study, scholarship, research or language learning purposes only