» » »

The Raconteurs - The Switch And The Spur Bass

Artists:  A B C D E F G H I J K L M N O P Q R S T U V W X Y Z # 

The Switch And The Spur Bass

(ver. 2) Click to play this song!
The Raconteurs
 Rating:
4/5 (4 votes)


 The Switch And The Spur lessons Tabs too difficult? Try these video lessons and learn fast
 
                The Switch And The Spur - Raconteurs
Bass Tab
By
ZackyJW83
Hope you enjoy playing this song.
And I have to say the Verse riff is very addictive!

Intro
     W                     H        H           Q    Q    Q    Q
G||-------------------||---------------------|----------------------|
D||-------------------||*--------------------|------------1---------|
A||-------------------||*-----------5--------|-------3---------1----|
E||-------------------||---3-----------------|--1-------------------|

 ______________________  __________________________
|1.                     |2.
  E.  S H.                E.  S Q.     E  S S S S
|----------------------||--------------------------|
|---------------------*||--------------------------|
|--3------------------*||--3-----------------3-1-0-|
|------3-3-------------||------3-3-----------------|


Verse
    E  S S E  S S S S E  S S S S      E  S S E  S S E  S S E  S S
G||---------------------------------||------------------------------|
D||*-------------------------------*||------------------------------|
A||*-------------------------3-1-0-*||----------------5----5-5----5-|
E||---3----3-3----3-1-0-1-----------||--3----3-3----3---------------|


  E  S E  S Q.     S   S S S
|------------------------------||
|-----------------------------*||
|--1--1------3--------3g5-3-1-*||
|-------1--1-------------------||

Second time playing this don't play the last three notes, just wait till the end of the 
and then play the intro again.

Interlude

     |----3----|    |----3----|       |----3----|    |----3----|
     Q    Q    Q    Q    Q    Q       Q    Q    Q    Q    Q    Q
G||--------------------------------|--------------------------------|
D||--------------------------------|--------------------------------|
A||--------------------------------|--5----5----5----5----5----5----|
E||--3----3----3----3----3----3----|--------------------------------|


  |----3----|    |----3----|       |----3----|    |----3----|
  Q    Q    Q    Q    Q    Q       Q    Q    Q    Q    Q    Q
|--------------------------------|--------------------------------|
|--------------------------------|--------------------------------|
|--1----1----1----0----0----0----|--3----3----3----3----3----3----|
|--------------------------------|--------------------------------|

Not sure how many times this repeats.

And if you want to have a crack at it, I have included the tab for the Piano/Brass part below.

                  |--3--|
     H.           E  E  E       Q.     E  Q    Q
G||------------------------||----------2------------|
D||------------------------||*--5---------4---------|
A||------------------3--5--||*-----------------5----|
E||---------------3--------||-----------------------|


  |--3--|        |--3--|                          |--3--|
  E  E  E  E  E  E  E  E  E  E     E.  S H        E  E  E
|--------------------------------|---------------------------||
|--3--5--3--2-----1--3--1--0-----|--------------------------*||
|--------------3--------------1--|--3-----------------3--5--*||
|--------------------------------|------3-3--------3---------||
Second time round go into the Verse.
            
Submit corrections



        The Switch And The Spur lessons Hard to play? Try these video lessons and learn fast The Switch And The Spur lessons
        
↑ Back to top | Tablatures and chords for acoustic guitar and electric guitar, ukulele, drums are parodies/interpretations of the original songs. You may use it for private study, scholarship, research or language learning purposes only