» » »

The Raconteurs - The Switch And The Spur Bass

Artists:  A B C D E F G H I J K L M N O P Q R S T U V W X Y Z # 

The Switch And The Spur Bass

(ver. 1) Click to play this song!
The Raconteurs
 Rating:
4/5 (4 votes)


 The Switch And The Spur lessons Tabs too difficult? Try these video lessons and learn fast
 
                -------------------------------------------------------------------------------
			     The Switch and the Spur - The Raconteurs
-------------------------------------------------------------------------------


Tuning: Standard

Intro
G|---------------------------------------------------------------------------|
D|-5----4--0--3-----1-----------------5----4--0--3-----1---------------------|
A|----------------3------1-3--------5----------------3------1-3--------------|
E|---------------------------3-3--------------------------------3-3----------|

Verse
G|---------------------------------------------------------------------------|
D|---------------------------------------------------------------------------|  2x
A|-3-1-0---------------------------------------------------------------------|
E|-------3-x-3-3-x-3-1-0-1---------------------------------------------------|

G|---------------------------------------------------------------------------|
D|---------------------------------------------------------------------------|
A|-3-1-0-------------5-x-5-5-x-5-1-1-0-0--3----------------------------------|
E|-------3-x-3-3-x-3---------------------------------------------------------|
 
Chorus 1
G|---------------------------------------------------------------------------|
D|-5----4--0--3-----1-----------------5-75-4--0--3-----1---------------------|
A|----------------3------1-3--------5----------------3------1-3--------------|
E|---------------------------3-3--------------------------------3-3----------|

Verse 2x

Chorus 2
G|---------------------------------------------------------------------------|
D|-5----4--0--3-----1-----------------5-754---0--35-32--13-10----------------|
A|----------------3------1-3--------5--------------------------1-3-----------|
E|---------------------------3-3-----------------------------------3-3-------|

Bridge 3x
G|---------------------------------------------------------------------------|
D|---------------------------------------------------------------------------|
A|--------555555-111-000-333333----------------------------------------------|
E|--33333--------------------------------------------------------------------|

Chorus 3
G|---------------------------------------------------------------------------|
D|-5----4--0--3-----1-----------------5-75-4--0--3-----1---------------------|
A|----------------3------1-3--------5----------------3------1-3--------------|
E|---------------------------3-3--------------------------------3-3----------|

Bridge 12x

END!

| /  slide up
| \  slide down
| h  hammer-on
| p  pull-off
| ~  vibrato
| +  harmonic
| x  Mute note
===============================================================================
            
Submit corrections



        The Switch And The Spur lessons Hard to play? Try these video lessons and learn fast The Switch And The Spur lessons
        
↑ Back to top | Tablatures and chords for acoustic guitar and electric guitar, ukulele, drums are parodies/interpretations of the original songs. You may use it for private study, scholarship, research or language learning purposes only