» » »

The Raconteurs - These Stones Will Shout Bass

Artists:  A B C D E F G H I J K L M N O P Q R S T U V W X Y Z # 

These Stones Will Shout Bass

(ver. 1) Click to play this song!
The Raconteurs
 Rating:
4/5 (4 votes)


 These Stones Will Shout lessons Tabs too difficult? Try these video lessons and learn fast
 
                
THESE STONES WILL SHOUT (Bassline)
As recorded by The Raconteurs
(From the 2008 Album CONSOLERS OF THE LONELY)

	

Words and Music by Benson/White
Arranged by Benson/White

Gtr I (E A D G) - 'Untitled'

 Intro
  Q=130
 4/4
  Gtr I
             <
  W          E E E E E E E E   E E E E E E E E   E E E E E E E E
|----------|-----------------|-----------------|------------------|
|----------|-----------------|-----------------|------------------|
|----------|-----------------|-----------------|------------------|
|----------|-0-0-0-0-0-0-0-0-|-0-0-0-0-0-0-0-0-|-0-0-0-0-0-0-0-0--|


  W          +W           +W           +W
|----------|------------|------------|--------|
|----------|------------|------------|--------|
|----------|------------|------------|--------|
|-0--------|-(0)--------|-(0)--------|-(0)----|


  Wx4
|--------||
|--------||
|--------||
|--------||


 Verse
  Wx8
|--------||
|--------||
|--------||
|--------||


 Break
  Wx3          H.      E E
|------------|-------------||
|------------|-------------||
|------------|---------5-6-||
|------------|-------------||


 Verse
  E E E E E E E E   E E E E E E E E   E E E E E E E E   +E  E E E E E E E
|-----------------|-----------------|-----------------|--------------------|
|-----------------|-----------------|-----------------|--------------------|
|-7-7-7-7-7-7-7-7-|-7-7-7-7-7-7-7-7-|-7-7-7-7-7-7-7---|--------------------|
|-----------------|-----------------|---------------5-|-(5)-5-5-5-5-5-5-5--|


  E E E E E E E E   E E E E E E E E   E E E E E E E E
|-----------------|-----------------|-----------------||
|-----------------|-----------------|-----------------||
|-7-7-7-7-7-7-7-7-|-7-7-7-7-7-7-7-7-|-7-7-7-7-7-7-7---||
|-----------------|-----------------|---------------7-||


 Pre-Chorus
  +E  E E Q  E E E   +E  E E E E E E E
|------------------|-------------------|
|------------------|-------------------|
|-----7-6----5-6-7-|-(7)-7-7-7-7-7-7---|
|-(7)-----5--------|-----------------7-|


  +E  E E Q  E E E   +E  E E E E E  E  E
|------------------|----------------------||
|------------------|----------------------||
|-----7-6----5-6-7-|-(7)-7-7-7-7-7--------||
|-(7)-----5--------|---------------(5)-7--||


 Chorus
  +E  E E Q  E E E   +E  E E E E E E E   +E  E E Q  E E E   +E  E E E E E E E
|------------------|-------------------|------------------|--------------------|
|------------------|-------------------|------------------|--------------------|
|-----7-6----5-6-7-|-(7)-7-7-7-7-7-7---|-----7-6----5-6---|-------7------------|
|-(7)-----5--------|-----------------7-|-(7)-----5------0-|-(0)-0---0-0-0-0-7--|


  +E  E E Q  E E E   +E  E E E E E E E   +E  E E Q  E E E   +E  E E E E E E E
|------------------|-------------------|------------------|--------------------|
|------------------|-------------------|------------------|--------------------|
|-----7-6----5-6-7-|-(7)-7-7-7-7-7-----|-----5------5-6---|-------7------------|
|-(7)-----5--------|---------------5-3-|-(3)---3-5------0-|-(0)-0---0-0-0-5-3--|


  +E  E E Q  E E E   +E  E Q  E E E E
|------------------|------------------|
|------------------|------------------|
|------------5-6-7-|-(7)-7-7--7-7-7-7-|
|-(3)-3-4-5--------|------------------|


  E E Q  E E E E   E E Q  E E E E   +E  E E E E E Q
|----------------|----------------|--------------------||
|----------------|--------------9-|-(9)-9-9-9-9-9------||
|-7-7-7--7-7-7-7-|-7-7-7--7-7-7---|--------------------||
|----------------|----------------|---------------7\---||


 Pre-Verse
  E E E E E E E E   E E E E E E E E   E E E E E E E E   E E E E E E E E
|-----------------|-----------------|-----------------|------------------||
|-----------------|-----------------|-----------------|------------------||
|-----------------|-----------------|-----------------|-------------5-6--||
|-0-0-0-0-0-0-0-0-|-0-0-0-0-0-0-0-0-|-0-0-0-0-0-0-0-0-|-0-0-0-0-0-0------||


 Verse
  E E E E E E E E   E E E E E E E E   E E E E E E E E   +E  E E E E E E E
|-----------------|-----------------|-----------------|--------------------|
|-----------------|-----------------|-----------------|--------------------|
|-7-7-7-7-7-7-7-7-|-7-7-7-7-7-7-7-7-|-7-7-7-7-7-7-7---|--------------------|
|-----------------|-----------------|---------------5-|-(5)-5-5-5-5-5-5-5--|


  E E E E E E E E   E E E E E E E E   E E E E E E E E
|-----------------|-----------------|-----------------||
|-----------------|-----------------|-----------------||
|-7-7-7-7-7-7-7-7-|-7-7-7-7-7-7-7-7-|-7-7-7-7-7-7-7---||
|-----------------|-----------------|---------------7-||


 Pre-Chorus
  +E  E E Q  E E E   +E  E E E E E E E
|------------------|-------------------|
|------------------|-------------------|
|-----7-6----5-6-7-|-(7)-7-7-7-7-7-7---|
|-(7)-----5--------|-----------------7-|


  +E  E E Q  E E E   +E  E E E E E  E  E
|------------------|----------------------|
|------------------|----------------------|
|-----7-6----5-6-7-|-(7)-7-7-7-7-7--------|
|-(7)-----5--------|---------------(5)-7--|


 Chorus
  +E  E E Q  E E E   +E  E E E E E E E   +E  E E Q  E E E   +E  E E E E E E E
|------------------|-------------------|------------------|--------------------|
|------------------|-------------------|------------------|--------------------|
|-----7-6----5-6-7-|-(7)-7-7-7-7-7-7---|-----7-6----5-6-7-|-(7)-7-7-7-7-7-7----|
|-(7)-----5--------|-----------------7-|-(7)-----5--------|-----------------7--|


  +E  E E Q  E E E   +E  E E E E E E E   +E  E E Q  E E E   +E  E E E E E E E
|------------------|-------------------|------------------|--------------------|
|------------------|-------------------|------------------|--------------------|
|-----7-6----5-6-7-|-(7)-7-7-7-7-7-----|-----5------5-6-7-|-(7)-7-7-7-7-7------|
|-(7)-----5--------|---------------5-3-|-(3)---3-5--------|---------------5-3--|


  +E  E E Q  E E  E    +W             +W             +H     +E  E E E
|--------------------|------------||--------------||-------------------||
|----------------(6)-|-(6)--------||o-(6)--------o||-(6)----(6)--------||
|------------5-6--7--|-(7)--------||o-(7)--------o||-(7)----(7)-----0--||
|-(3)-3-4-5-------0--|-(0)--------||--(0)---------||-(0)----(0)-0-3----||


 Bridge
  E E E q  E E E   E E E q  E E E   E E E q  q  E   E q  q  q  E
|----------------|----------------|---------------|--------------|
|-------2--------|-------2--------|---------------|--------------|
|-1-0----------0-|-1-0----------0-|-1-0---3-------|---0--3-------|
|-----3----0-3---|-----3----0-3---|-----3----0--3-|---------0--3-|


    E q  q  q  E   E q  q  q  E   E q  q  q  E   E q  q  q  E   3x
||---------------|--------------|--------------|----------------||
||o--------------|--------------|--------------|---------------o||
||o---0--3--0----|------3--0----|------3-------|---0--3--------o||
||-------------3-|---0--------3-|---0-----0--3-|---------0--3---||


                                                     2/4
  E q  q  q  E   E q    E  +H        +Q.   E +H       +Q.   E
|--------------|------------------|-----------------|----------||
|--------------|------------------|-----------------|----------||
|---0--3--0----|------------------|-----------------|----------||
|------------3-|---0--/10-(10)----|-(10)---8-(8)----|-(8)---7--||


 Out-Chorus
 4/4
  +Q.   H     E   +H.      +E  E   +Q.   H     E   +H.      +E  E
|---------------|----------------|---------------|-----------------|
|---------------|----------------|------------/6-|-(6)------(6)----|
|------------/7-|-(7)------(7)---|-------5----/7-|-(7)------(7)----|
|-(7)---5-----0-|-(0)------(0)-7-|-(7)-----------|--------------7--|


  +Q.     H      E    +E    a  H.      E   +E  E E Q  E E  E   +H.      +E  E
|------------------|---------------------|---------7--7------|----------------|
|------------------|---------------------|----------------/6-|-(6)------(6)---|
|-------/12----/11-|-(11)-(11)s7---------|----------------/7-|-(7)------(7)---|
|-(7)--------------|-------------------3-|-(3)-3-------------|--------------7-|


  +E  E E Q  E E E   +E  E E E E E E E
|------------------|-------------------|
|------------------|-------------------|
|-----7-6----5-6-7-|-(7)-7-7-7-7-7-7---|
|-(7)-----5--------|-----------------7-|


  +E  E E Q  E E E   +E   E   E   E   E   E   E  E
|------------------|--------------------------------|
|------------4-0-6-|-(6)--6---6---6---6---6--(6)----|
|-----7---5------7-|-(7)-(7)-(7)-(7)-(7)-(7)-(7)----|
|-(7)---7----------|-----------------------------7--|


  +E  E E Q  E E E   +E  E E E E E E E   +E  E E E +E  E E E   +H.      +E  E
|------------------|-------------------|---------------------|-----------------|
|------------------|-------------------|---------------4-----|-----------------|
|-----7-6----5-6-7-|-(7)-7-7-7-7-6-5---|-----2---5-(5)---5-7-|-(7)------(7)----|
|-(7)-----5--------|-----------------3-|-(3)---3-------------|--------------3--|


  +E  E E E +E  E E E   +H.      +E   E
|---------------------|-----------------|
|---------------4---6-|-(6)------(6)\---|
|-----2---5-(5)---5-7-|-(7)------(7)\---|
|-(3)---3-------------|---------------3-|


  +E  E E E +E  E E E   +H.      +E   E
|---------------------|------------------|
|---------------4---6-|-(6)------(6)\----|
|-----3-4-5-(5)---5-7-|-(7)------(7)\----|
|-(3)-----------------|---------------3--|


  +E  E E E +E  E E E     +W           +W          4x +W
|---------------------||-------------|-------------||--------*|
|---------------4-----||o------------|------------o||--------*|
|-----3-4-5-(5)---5-7-||o-(7)--------|-(7)--------o||-(7)----*|
|-(3)---------------0-||--(0)--------|-(0)---------||-(0)----*|



Duration Legend
---------------
W - whole; H - half; Q - quarter; E - 8th; S - 16th; T - 32nd; X - 64th; a - acciaccatura
+ - note tied to previous; . - note dotted; .. - note double dotted
Uncapitalized letters represent notes that are staccato (1/2 duration)
Irregular groupings are notated above the duration line
Duration letters will always appear directly above the note/fret number it represents the
duration for.  Duration letters with no fret number below them represent rests.  Multi-
bar rests are notated in the form Wxn, where n is the number of bars to rest for.  Low
melody durations appear below the staff

Tablature Legend
----------------
 h   - hammer-on
 p   - pull-off
 b   - bend
 pb  - pre-bend
 r   - bend release (if no number after the r, then release immediately)
 /\  - slide into or out of (from/to "nowhere")
 s   - legato slide
 S   - shift slide
 - natural harmonic
[n]  - artificial harmonic
n(n) - tapped harmonic
 ~   - vibrato
 tr  - trill
 T   - tap
 TP  - trem. picking
 PM  - palm muting
\n/  - tremolo bar dip; n = amount to dip
 \n  - tremolo bar down
 n/  - tremolo bar up
/n\  - tremolo bar inverted dip
 =   - hold bend; also acts as connecting device for hammers/pulls
 <> - volume swell (louder/softer)
 x   - on rhythm slash represents muted slash
 o   - on rhythm slash represents single note slash

Misc Legend
-----------
 |  - bar
||  - double bar
||o - repeat start
o|| - repeat end
*|  - double bar (ending)
 :  - bar (freetime)
 $  - Segno
 &  - Coda
Tempo markers -  = BPM(8/16=s8/s16), where s8 = swing 8ths, s16 = swing 16ths
            
Submit corrections



        These Stones Will Shout lessons Hard to play? Try these video lessons and learn fast These Stones Will Shout lessons
        
↑ Back to top | Tablatures and chords for acoustic guitar and electric guitar, ukulele, drums are parodies/interpretations of the original songs. You may use it for private study, scholarship, research or language learning purposes only