» » »

The Raconteurs - Steady As She Goes Bass

Artists:  A B C D E F G H I J K L M N O P Q R S T U V W X Y Z # 

Steady As She Goes Bass

(ver. 2) Click to play this song!
The Raconteurs
 Rating:
4/5 (4 votes)


 Steady As She Goes lessons Tabs too difficult? Try these video lessons and learn fast
 
                :=short/staccato
h=hammer on
p=pull off
/=slide up
~=hold out


Intro (rest 4 measures then)
G -------------------    G --------------------|
D -------------------    D --------------------|
A 2:-2----2-0:-0----- 3x A 2:-2----2-0:-0------|
E -----2:--------0-2-    E -----2:--------0245-|

G -------------------    G -----------------------|
D -------------------    D ---------------4-2-----|
A 2:-2----2-0:-0----- 2x A 2:-2----2-0:-0-----5-4-|
E -----2:--------0-2-    E -----2:----------------|

Verse
G -------------------------------------------|
D -----------------------------------4-2-----|
A 2:-2----2-0:-0------2:-2----2-0:-0-----5-4-|
E -----2:--------0245------2:----------------|

Chorus
G -------------------|
D -------------------|
A 2-2-4---2-0-00-----| 2x
E -----2-2------0245-|

Verse 2x
Chorus 2x

Hook
G ----------------------------------------|
D 5-5-5-5--7-7-7-7--9999999-7h999-9-7-----|
A ---5-5-5----7-7-7------------------10-7-|
E ----------------------------------------|

G ------------------------------------------|
D 5-5-5-5--7-7-7-7--2-222222/14~----14~-----|
A ---5-5-5----7-7-7------------14~----14~---|
E -------------------------------12~----12~-|

Verse 3x
rest 1 measure before Chorus
Chorus 2x
Hook
Verse 3x

Their bassist does this (fading in) before the last chorus
G -----------------
D 9999999999999999-
A -----------------|
E -----------------|

Chorus 4x

Outro
G -----------------    G ---|
D -----------------    D ---|
A 2222----0000----- 4x A 2~-|
E ----2222----0000-    E ---|
            
Submit corrections



        Steady As She Goes lessons Hard to play? Try these video lessons and learn fast Steady As She Goes lessons
        
↑ Back to top | Tablatures and chords for acoustic guitar and electric guitar, ukulele, drums are parodies/interpretations of the original songs. You may use it for private study, scholarship, research or language learning purposes only