» » »

The Raconteurs - Steady As She Goes Bass

Artists:  A B C D E F G H I J K L M N O P Q R S T U V W X Y Z # 

Steady As She Goes Bass

(ver. 1) Click to play this song!
The Raconteurs
 Rating:
4/5 (4 votes)


 Steady As She Goes lessons Tabs too difficult? Try these video lessons and learn fast
 
                -----------------------------------------------------------------------------
		    Steady As She Goes - The Raconteurs
-----------------------------------------------------------------------------


Tuning: Standard




 First RIFF

G|--------------------------------------------------------------------------|
D|--------------------------------------------------------------------------|
A|--2----1-------2----0----0------------------------------------------------|
E|----------2-------------------0--2----------------------------------------|
 

 Second RIFF

G|--------------------------------------------------------------------------|
D|--------------------------------------------------------------------------|
A|--2----1-------2----0----0------------------------------------------------|
E|----------2-------------------0--2--4--5----------------------------------|
 

 Third RIFF

G|--------------------------------------------------------------------------|
D|---------------------------4--2-------------------------------------------|
A|2----1-------2----0----0---------5--4-------------------------------------|
E|--------2-----------------------------------------------------------------|
 

 First CHORUS

G|--------------------------------------------------------------------------|
D|--------------------------------------------------------------------------|
A|--2--2/5------------------------------------------------------------------|
E|----------2--2--5----5--0--2--4--5----------------------------------------|
 
 Second CHORUS

G|-----------------------------------------------------------------------|
D|-----------------------------------------------------------------------|
A|-----------------------------------------------------------------------|  
E|3---3---3--0-3-4-5---5---5-0-5-0--7--7--7--7--5--7--7--7--6--5--4--3---|-->


 -> (...continued)					      
G|--------------------------------------------------------------------------|
D|--------------------------------------------------------------------------|
A|----------------------------------------/7--------------------------------|
E|3---3---3-0-3-0--5---5---5-0-5-3-0-----------0----------------------------|



ORDER (!)

Intro/ 1. verse:

First  RIFF x3
Second RIFF
First  RIFF x2
Third  RIFF
Second RIFF
Third RIFF

First  CHORUS x2

2. verse:

Second RIFF ---\  
Third  RIFF ---/  x2

First  CHORUS x2
Second CHORUS

3. Verse:

Second RIFF---\
Third  RIFF---/  x2
Second RIFF x2

First  CHORUS x2
Second CHORUS

4. verse:

First  RIFF
Third  RIFF---\
Second RIFF---/  x2
First  RIFF

First  CHORUS x9


_________________________________________________________

ok; the order is the first ive written, i hope its ok.
    If theres any confusion pls comment, or mail.


| /  slide up
| \  slide down
| h  hammer-on
| p  pull-off
| ~  vibrato
| +  harmonic
| x  Mute note
=============================================================================
            
Submit corrections



        Steady As She Goes lessons Hard to play? Try these video lessons and learn fast Steady As She Goes lessons
        
↑ Back to top | Tablatures and chords for acoustic guitar and electric guitar, ukulele, drums are parodies/interpretations of the original songs. You may use it for private study, scholarship, research or language learning purposes only