» » »

The Raconteurs - Salute Your Solution Bass

Artists:  A B C D E F G H I J K L M N O P Q R S T U V W X Y Z # 

Salute Your Solution Bass

(ver. 2) Click to play this song!
The Raconteurs
 Rating:
4/5 (4 votes)


 Salute Your Solution lessons Tabs too difficult? Try these video lessons and learn fast
 
                ---------------------------------------------------------------------
			     Salute Your Solution - The Raconteurs
---------------------------------------------------------------------


Tuning: Standard

Ok, well i dont know if this is 100% correct cuz its all by ear, but i know the bass 
a little distortion so yeah, hope i did ok

intro
prt 1
G|---------------------------------------------------------------------------|
D|---------------------------------------------------X4----------------------|
A|---7---7------5------------------------------------------------------------|
E|---------------------5-------7--7--7---------------------------------------|
prt 2
G|---------------------------------------------------------------------------|
D|-----------------------------------------------X2--------------------------|
A|----------------------------------5---5------------------------------------|
E|-----0---0-----3-----5-----7-----------------------------------------------|


Verse
prt 1
G|---------------------------------------------------------------------------|
D|-----------------------------------------------X4--------------------------|
A|----------------------------------5---5------------------------------------|
E|-----0---0-----3-----5-----7-----------------------------------------------|
prt 2
G|----------------------------------7---7------------------------------------|
D|---------------5-----7-----9--------------------X4-------------------------|
A|-----7---7-----------------------------------------------------------------|
E|---------------------------------------------------------------------------|


then you play part 1 of the intro for the chorus.
Then it goes to the verse again, and then the first solo.
During the first solo, you play something that sounds like this

solo 1

G|---------------------------------------------------------------------------|
D|---------------------------------X4----------------------------------------|
A|------7-RING---7/14/7------------------------------------------------------|
E|---------------------------------------------------------------------------|

The bridge is played the same way that the_bear_shark tabbed it out,
 except he or she (i dont know if a girl or guy) calls it the guitar breakdown.
 its basicly the same thing, so props to the_bear_shark for the bass bridge.


ending bass part over the outro solo is intro prt 1 and verse 2 together.
im too lazy to tab out

so there it is, i hope its ok.


| /  slide up
| \  slide down
| h  hammer-on
| p  pull-off
| ~  vibrato
| +  harmonic
| x  Mute note
            
Submit corrections



        Salute Your Solution lessons Hard to play? Try these video lessons and learn fast Salute Your Solution lessons
        
↑ Back to top | Tablatures and chords for acoustic guitar and electric guitar, ukulele, drums are parodies/interpretations of the original songs. You may use it for private study, scholarship, research or language learning purposes only