» » »

The Raconteurs - Bored And Razed Chords

Artists:  A B C D E F G H I J K L M N O P Q R S T U V W X Y Z # 

Bored And Razed Chords

(ver. 1) Click to play this song!
The Raconteurs
 Rating:
4.3/5 (15 votes)

 Bored And Razed lessons Tabs too difficult? Try these video lessons and learn fast
 
                [Intro]
  A5
e|-----------------------------------|
B|-----------------------------------|
D|--2--0-----0-----------------------|
G|--------4-----4--2--4--2--0--2-----|
A|--------------------------------0--|
E|-----------------------------------|
  A5
e|-----------------------------------|
B|-----------------------------------|
D|--2--0-----0-----------------------|
G|--------4-----4--2--4--2--0--2-----|
A|-----------------------------------|
E|-----------------------------------|

(Repeated)

A5 D5 C5 G5 E5 A5 x2


[Riff]
  A5
e|-------------------------------------------17--17--|
B|--17--15------15-------17--15------15------17--17--|
D|----------17------17-----------17------17----------|
G|---------------------------------------------------|
A|---------------------------------------------------|
E|---------------------------------------------------|


[Verse 1]
A5
Rolling a juke joint box in the corner
A5
Trolling myself in the mirror at night
A5
Keeping an eye on my grindstone future
A5
Staying away from the left and the right

[Chorus 1]
A5                   D5
California bored and razed
C5
But these days
G5    E5          A5
She's living with another
A5                        D5
Plastic features, perfect face
C5
What a waste
    G5        E5          A5
But I'm still thinking of her

(Riff)

[Verse 2]
A5
Laying the cardinal sins on the table
A5
Pouring the coffee out on the grounds
A5
Changing the losses to wins if I'm able
A5
Switching the pitch to an audible sound

[Verse 3]
A5
Running the rounds of the mundane soldier
A5
Trading the cards and erasing the names
A5
Feeling a pounding, insane, colder,
A5
Sounding, system, feeding the flames

[Chorus 2]
A5                        D5
Well I'm Detroit born and raised
C5
But these days
G5  E5          A5
I'm living with another
A5                     D5
You tell me she can be replaced
C5
But that's not the case
G5     E5           D5
I'm so lost without her

(Intro Riff)

[Verse 4]
A5
Rolling a juke joint box in the corner
A5
Trolling myself in the mirror at night
A5
Keeping an eye on my grindstone future
A5
Staying away from the left and the right

(Riff)

A5 D5 C5 G5 E5 A5
            
Submit corrections


        Bored And Razed lessons Hard to play? Try these video lessons and learn fast Bored And Razed lessons
        
↑ Back to top | Tablatures and chords for acoustic guitar and electric guitar, ukulele, drums are parodies/interpretations of the original songs. You may use it for private study, scholarship, research or language learning purposes only