» » »

The Pretty Reckless - Miss Nothing Bass

Artists:  A B C D E F G H I J K L M N O P Q R S T U V W X Y Z # 

Miss Nothing Bass

(ver. 2) Click to play this song!
The Pretty Reckless
 Rating:
4/5 (4 votes)


 Miss Nothing lessons Tabs too difficult? Try these video lessons and learn fast
 
                INTRO 
G|------------------------|
D|------------------------|
A|------------------------|
D|-1h3---------1h3--------|

G|---------------------------------------------------------------------|
D|--------------6----------------------------------6-------------------|
A|--6-8-8-8-6-8--------6-8-8-8-6-8/----6-8-8-8-6-8---------------------|
D|----------------------------------------------------6---6-6--8-8-8---| x2

VERSE 1
G|-----------------------------------------------------|
D|-----------------------------------------------------|
A|-----------------------------------------------------|
D|-1h3---------1h3---------1h3-------6--6-6--8-8-8-----| x2

G|-------------------------------------------------------------|
D|--------------6------------8-6-------------6-----------------|
A|--6-8-8-8-6-8----6-8-8-8-6-----6-8-8-8-6-8-------------------|
D|---------------------------------------------6--6-6--8-8-8---| 

G|-------------------------------------------------------------|
D|-------------------------------------------------------------|
A|-------------1---------3-3-1-1-------------------------------|
D|-1h3-3-3-1-3---1-3-3-3---------1h3-3-3-1-3-1-5-5-5-5-3-3-3-3-| 

PRE-CHORUS
G|-----------------------------------------------------------------|
D|-----------------------------------------------------------------|
A|-----------------4-4-4-4-----------------4-4-4-4-----------------|
D|-6-6-6-6-4-4-4-4---------6-6-6-6-6-6-6-6--------6-6-6-6----------| x2

G|--------------------------------------------------------|
D|--------------------------------------------------------|
A|-----------------4-4-4-4--------------------------------|
D|-6-6-6-6-4-4-4-4---------6-6-6-6-4-4-4-4-4-4-4-4-4-4-4-4|


CHORUS
G|-----------------------------------------------------------------|
D|-----------------------------------------------------------------|
A|---------------------------------4-4-4-4-4-4-4-4-----------------|
D|-1-1-1-1-1-1-1-1-3-3-3-3-3-3-3-3-----------------6-6-6-6-6-6-6-6-| x2

G|-----------------------------------------------------------------|
D|-----------------------------------------------------------------|
A|-------------------------------------------------4-4-4-4-4-4-4-4-| 
D|-6-6-6-6-6-6-6-6-1-1-1-1-1-1-1-1-3-3-3-3-3-3-3-3-----------------| 

G|---------------------------------|
D|---------------------------------|
A|---------------------------------|
D|-6-6-6-6-6-6-6-6-1-1-1-1-1-1-1-1-| 

G|-------------------------------------------------------------|
D|--------------6------------8-6-------------6-----------------|
A|--6-8-8-8-6-8----6-8-8-8-6-----6-8-8-8-6-8-------------------|
D|---------------------------------------------6--6-6--8-8-8---|


VERSE

PRE-CHORUS

CHORUS


BRIDGE 3
G|-----------------------------------------------------------------|
D|-----------------------------------------------------------------|
A|---------------------------------4-4-4-4-4-4-4-4-----------------|
D|-3-3-3-3-3-3-3-3-1-1-1-1-1-1-1-1-----------------1-1-1-1-1-1-1-1-| x2

G|-----------------------------------------------------------------|
D|-----------------------------------------------------------------|
A|---------------------------------4~~~~~~-------------------------|
D|-3~~~~~~---------1~~~~~~-------------------------1~~~~~~---------| x2


CHORUS


OUTRO

G|----------------------------------------------------------------------|
D|--------------6----------------------------------6--------------------|
A|--6-8-8-8-6-8--------6-8-8-8-6-8/----6-8-8-8-6-8----------------------|
D|----------------------------------------------------6---6-6--8-8-8-8~-| 
            
Submit corrections



        Miss Nothing lessons Hard to play? Try these video lessons and learn fast Miss Nothing lessons
        
↑ Back to top | Tablatures and chords for acoustic guitar and electric guitar, ukulele, drums are parodies/interpretations of the original songs. You may use it for private study, scholarship, research or language learning purposes only