» » »

The Pretty Reckless - Factory Girl Tabs

Artists:  A B C D E F G H I J K L M N O P Q R S T U V W X Y Z # 

Factory Girl Tabs

(ver. 1) Click to play this song!
The Pretty Reckless
 Rating:
4.4/5 (7 votes)

 Factory Girl lessons Tabs too difficult? Try these video lessons and learn fast
 
                
0:06
Main Riff:
E|----------|    |----------------------------------------|
B|----------|    |----------------------------------------|
G|----------|    |----------------------------------------|
D|-3-3-3----| x3 |-3-3-3---------------------------7-7-7--| x1
A|-1-1-1-2--|    |-1-1-1-2-------------------------5-5-5--|
E|-------0--|    |-------0--------------------------------|

                Counting 1 2 3 4 5 6 7 8 1 2 3 4 5 6 7 8

3rd and 4th time Lead Plays: (Start playing this part on the E5 chord)
E|-----------------------------------------------------------------|
B|-----------------------------------------------------------------|
G|9-9-9-9-9-9-9-9-9-9-9-9-9-3-3-3-9-9-9-9-9-9-9-9-9-9-9-9-9-7-7-7--|
D|-----------------------------------------------------------------|
A|-----------------------------------------------------------------|
E|-----------------------------------------------------------------|

0:22
Vocals start, play first riff (the 1 that says x3)

0:36
Play A5 instead of E5

0:40
On and off beat stabs - B5 chord

0:43 - there are diffrent timings for the chords and a diffrent number of times you have 
to play them
E|------------------------------------------------------------|
B|------------------------------------------------------------|
G|------------------------------------------------------------|
D|------------------------------------------------------------|
A|-22--------------55-------77--2222-------------55-------77--|
E|-00--------------33-------55--0000-------------33-------55--|

0:57   0:58
E|---| |---------------------|    |---------------------|
B|---| |---------------------|    |---------------------|
G|---| |---------------------|    |---------------------|
D|---| |-22-4-55-7-9-99------| x2 |-99-7-55-4-2-22-2----| x1
A|-2-| |-00-2-33-5-7-77-7-5--|    |-77-5-33-2-0-00-0-5--|
E|-0-| |----------------5-3--|    |------------------3--|

E|-------------------------|
B|-------------------------|
G|-------------------------|
D|-------------------------| x1
A|-22-4-5-55-7777-7-8-7-5--|
E|-00-2-3-33-5555-5-6-5-3--|

1:12
Play first riff (the 1 that says x3)

1:41
Play A5 instead of E5

1:45
On and off beat stabs - B5 chord

1:48
Play whats shown at 0:43

2:03
Play whats shown at 0:57 and then 0:58

2:17
Play whats shown at 0:43 (but only once)

2:24
Play 1st riff but instead of Bb5 play E5 and instead of E5 play F#5

2:39
Play whats shown at 0:43 (this riff until end)

This is pretty accurate. Hope it helps. Instead of writing TAB again or copying and 
pasting it i prefer to write references to the piece i.e. (in seconds where each part 
begins) Enjoy!
            
Submit corrections


        Factory Girl lessons Hard to play? Try these video lessons and learn fast Factory Girl lessons
        
↑ Back to top | Tablatures and chords for acoustic guitar and electric guitar, ukulele, drums are parodies/interpretations of the original songs. You may use it for private study, scholarship, research or language learning purposes only