Home » T » The Pretty Reckless »

The Pretty Reckless - 25 Tabs

Artists:  A B C D E F G H I J K L M N O P Q R S T U V W X Y Z # 

25 Tabs

(ver. 1) Click to play this song!
The Pretty Reckless
[Intro]
 
e|-------------------------------------|
B|-------------------------------------|
G|-------------------------------------|
D|------0-------0-------0--------0-----|
A|----0---0---0---0---0---0----0---0---|
D|--0-------8-------9-------8----------|
 
e|-------------------------------------|
B|-------------------------------------|
G|-------------------------------------|
D|------0-------0-------0----10~-------|
A|----0---0---0---0---0---0--10~-------|
D|--0-------8-------9--------10~-------|
 
[Verse 1]
 
** Riff A **
 
e|-------------------------------------|
B|-------------------------------------|
G|-------------------------------------|
D|------0-------0-------0--------0-----| x8
A|----0---0---0---0---0---0----0---0---|
D|--0-------8-------9-------8----------|
 
Year one was lots of fun
But nothin' lasts forever in my dreams
And two, I followed you
Because you knew the way or so it seemed
And three, I still believed
That we would be becoming destiny
And four, I wanted more
But you were movin' on to better things
 
    C5
 
e|---------------------|
B|---------------------|
G|--5-5-5-5-5-5-5-5----|
D|--5-5-5-5-5-5-5-5----|
A|--3-3-3-3-3-3-3-3----|
D|---------------------|
 
[Chorus]
 
    D     E     F      G
 
e|------------------------------|
B|------------------------------|
G|--7--7--9--9--10-10--12-12----|
D|--x--x--x--x--x--x---x--x-----|
A|--5--5--7--7--8--8---10-10----|
D|------------------------------|
 
At twenty-five, and still alive
 
    A      B      Bb     C
 
e|--------------------------------|
B|--------------------------------|
G|--14-14--15-15--16-16--17-17----|
D|--x--x---x--x---x--x---x--x-----|
A|--12-12--13-13--14-14--15-15----|
D|--------------------------------|
 
Much longer than expected for a man
 
    D      E      F      G
 
e|--10-10--12-12--13-13--15-15----|
B|--x--x---x--x---x--x---x--x-----|
G|--7--7---9--9---10-10--12-12----|
D|--------------------------------|
A|--------------------------------|
D|--------------------------------|
 
At twenty-five, all hope has died
 
    Bb          F        A5
 
e|--------------------------------------|
B|--11-11-11-11-6-6-6-6-----------------|
G|--10-10-10-10-5-5-5-5-----------------|
D|--8--8--8--8--3-3-3-3--7-7-7-7-7-x----|
A|--8--8--8--8--3-3-3-3--7-7-7-7-7-x----|
D|--8--8--8--8--3-3-3-3--7-7-7-7-7-x----|
 
And the glass of my intentions turns to sand
 
[N.C.]
 
And shatters in my hand
 
e|-------------------------------------|
B|-------------------------------------|
G|-------------------------------------|
D|------0-------0-------0--------0-----|
A|----0---0---0---0---0---0----0---0---|
D|--0-------8-------9-------8----------|
 
e|-------------------------------------|
B|-------------------------------------|
G|-------------------------------------|
D|------0-------0-------0----12~-------|
A|----0---0---0---0---0---0--12~-------|
D|--0-------8-------9--------12~-------|
 
[Verse 2]
 
** Riff A ** (plays faintly in the mix and slowly builds)
 
    D5
 
e|--------------------------|
B|--------------------------|
G|--7------------7----------|
D|--7------------7----------| x4
A|--5------------5----------|
D|--------------------------|
 
Five to six, a lie, a kiss
The secrets that were served we'd never say
Skip to eight, we called it fate
To live, to let us die another day
And nine, I saw the signs
Reflected in the barrel of a gun (##)
Ten, we're here again
Those who loved me burned up in the sun
 
## fill 1:
 
e|------------------------|
B|------------------------|
G|------------------------|
D|--5--3--2--2h3p2--0~----|
A|------------------------|
D|------------------------|
 
[Chorus]
 
    D     E     F      G
 
e|------------------------------|
B|------------------------------|
G|--7--7--9--9--10-10--12-12----|
D|--x--x--x--x--x--x---x--x-----|
A|--5--5--7--7--8--8---10-10----|
D|------------------------------|
 
At twenty-five, and still alive
 
    A      B      Bb     C
 
e|--------------------------------|
B|--------------------------------|
G|--14-14--15-15--16-16--17-17----|
D|--x--x---x--x---x--x---x--x-----|
A|--12-12--13-13--14-14--15-15----|
D|--------------------------------|
 
Much longer than expected for a man
 
    D      E      F      G
 
e|--10-10--12-12--13-13--15-15----|
B|--x--x---x--x---x--x---x--x-----|
G|--7--7---9--9---10-10--12-12----|
D|--------------------------------|
A|--------------------------------|
D|--------------------------------|
 
At twenty-five, all hope has died
 
    Bb          F        A5
 
e|--------------------------------------|
B|--11-11-11-11-6-6-6-6-----------------|
G|--10-10-10-10-5-5-5-5-----------------|
D|--8--8--8--8--3-3-3-3--7-7-7-7-7-x----|
A|--8--8--8--8--3-3-3-3--7-7-7-7-7-x----|
D|--8--8--8--8--3-3-3-3--7-7-7-7-7-x----|
 
And the glass of my intentions turns to sand
 
[N.C.]
And shatters in my hand
 
e|--------------------------|
B|--------------------------|
G|--------------------------|
D|--0-0--0-0--0-0--0--0-----|
A|--0-0--0-0--0-0--0--0-----|
D|--7-7--8-8--9-9--10-10----|
 
Hand
 
e|------------------------------|
B|------------------------------|
G|--7--7--9--9--10-10--12-12----|
D|--x--x--x--x--x--x---x--x-----|
A|--5--5--7--7--8--8---10-10----|
D|------------------------------|
 
Shatters in my hand
 
[Bridge]
 
    F    E    D    C     Bb   A    G    C5
 
e|-----------------------------------------------------|
B|-----------------------------------------------------|
G|--10---9----7----5-----------------------------------|
D|--x----x----x----x-----------------------------------|
A|--8----7----5----3-----0----0----0----10-10-10-10----|
D|-----------------------8----7----5----10-10-10-10----|
 
From eleven, twelve, I held the future in my grasp
 
    F    E    D    C     Bb   A
 
e|---------------------------------------------------|
B|---------------------------------------------------|
G|--10---9----7----5---------------14b15r14b15r14----|
D|--x----x----x----x---------------------------------|
A|--8----7----5----3-----0----0----------------------|
D|-----------------------8----7----------------------|
 
And all through my teens, I screamed I may not live much past
 
e|-----------------------|
B|-----------------------|
G|-----------------------|
D|--0----8----9----8-----| x3
A|--0--------------------|
D|--0--------------------|
 
Twenty-one, two, three, four
Twenty-one, two, three, four
Twenty-one, two, three, four
 
e|---------------------------|
B|---------------------------|
G|--(0)---(0)---(0)---(0)----|
D|--12----12----12----12-----|
A|---------------------------|
D|---------------------------|
 
One, two, three, four
 
[Chorus]
 
    D     E     F      G
 
e|------------------------------|
B|------------------------------|
G|--7--7--9--9--10-10--12-12----|
D|--x--x--x--x--x--x---x--x-----|
A|--5--5--7--7--8--8---10-10----|
D|------------------------------|
 
At twenty-five, and still alive
 
    A      B      Bb     C
 
e|--------------------------------|
B|--------------------------------|
G|--14-14--15-15--16-16--17-17----|
D|--x--x---x--x---x--x---x--x-----|
A|--12-12--13-13--14-14--15-15----|
D|--------------------------------|
 
Much longer than expected for a man
 
    D      E      F      G
 
e|--10-10--12-12--13-13--15-15----|
B|--x--x---x--x---x--x---x--x-----|
G|--7--7---9--9---10-10--12-12----|
D|--------------------------------|
A|--------------------------------|
D|--------------------------------|
 
At twenty-five, all hope has died
 
    Bb          F
 
e|--------------------------|
B|--11-11-11-11-6-6-6-6-----|
G|--10-10-10-10-5-5-5-5-----|
D|--8--8--8--8--3-3-3-3-----|
A|--8--8--8--8--3-3-3-3-----|
D|--8--8--8--8--3-3-3-3-----|
 
And the glass of my intentions
 
    C        D
 
e|---------------------|
B|--13--13---15--------|
G|--12--12---14--------|
D|--10--10---12--14----|
A|--10--10---12--14----|
D|--10--10---12--14----|
 
And the glass of my intentions
 
    Bb          F        A5
 
e|--------------------------------------|
B|--11-11-11-11-6-6-6-6-----------------|
G|--10-10-10-10-5-5-5-5-----------------|
D|--8--8--8--8--3-3-3-3--7-7-7-7-7-x----|
A|--8--8--8--8--3-3-3-3--7-7-7-7-7-x----|
D|--8--8--8--8--3-3-3-3--7-7-7-7-7-x----|
 
And the glass of my intentions turns to sand
 
[N.C.]
And shatters in my hand
 
e|--------|
B|--------|
G|--------|
D|--0~----|
A|--0~----|
D|--0~----|
 
[Outro]
 
e|-------------------------------------|
B|-------------------------------------|
G|-------------------------------------|
D|------0-------0-------0--------0-----| x4
A|----0---0---0---0---0---0----0---0---|
D|--0-------8-------9-------8----------|
 
And shatters in my hand
 
** Outro Fill 2 **
 
e|----------------------------------|
B|--//15~---/15\13~-----------------|
G|------------------14p12h14~-------|
D|----------------------------------|
A|----------------------------------|
D|----------------------------------|
            
Submit corrections

↑ Back to top | Tablatures and chords for acoustic guitar and electric guitar, ukulele, drums are parodies/interpretations of the original songs. You may use it for private study, scholarship, research or language learning purposes only