» » »

The Pigeon Detectives - Stop Or Go Tabs

Artists:  A B C D E F G H I J K L M N O P Q R S T U V W X Y Z # 

Stop Or Go Tabs

(ver. 1) Click to play this song!
The Pigeon Detectives
 Rating:
4.2/5 (5 votes)


 Stop Or Go lessons Tabs too difficult? Try these video lessons and learn fast
 
                Intro(0:00-0:29)

e|3--------5-----------------------------------|
B|5--(x16)-5--(x16)----------------------------|
G|5--------5-----------------------------------|  (x4)
D|---------------------------------------------|
A|---------------------------------------------|
E|---------------------------------------------|

Then...(0:29)

It's played when it says "STOP"

e|---------------------------------------------|
B|---------------------------------------------|
G|5--------------------------------------------|
D|5---(only one time)--------------------------|
A|3--------------------------------------------|
E|---------------------------------------------|

Verse(0:31-0:36)

e|--------3--------5---------3---------5---------------|
B|--------5--(x8)--5--(x16)--5--(x16)--5--(x16)--------|
G|--------5--------5---------5---------5---------------|
D|-----------------------------------------------------|
A|-----------------------------------------------------|
E|-----------------------------------------------------|

Chorus(0:43-0:58)

Both together

e|-----------------------------------------------------------------------|
B|-----------------------------------------------------------------------|
G|------------------------------------------------------7----------------|
D|3--------7--------3--------7--------3--------7--------7--(x8)--5-------|
A|3--(x8)--7--(x8)--3--(x8)--7--(x8)--3--(x8)--7--(x8)--5--------5-------|(x8)
E|1--------5--------1--------5--------1--------5-----------------3-------|

e|-------------------|
B|--------8-8-10-10--|
G|7-7-9-9------------|  (x8)
D|-------------------|
A|-------------------|
E|-------------------|

Then...(0:58)

Verse(1:00-1:12)

e|--------------------------------------------------------|
B|--------------------------------------------------------|
G|--------------5--4------------------------5--4----------|
D|7--5----------------7--5----7--5----------------7--5----|
A|------7--5------------------------7--5------------------|
E|--------------------------------------------------------|

e|---------------------------------------|
B|---------------------------------------|
G|--------------5--4---------------------|
D|7--5----------------7--5----7--5-------|
A|------7--5------------------------7--5-|
E|---------------------------------------|

Chorus(1:12-1:26)

Then...(1:26)

Solo(1:26-1:42)

e|8--7---------------------|
B|------10--8-----------8--|
G|-------------9--7--9-----|  (x8)
D|-------------------------|
A|-------------------------|
E|-------------------------|

Verse(1:29-1:42)

Chorus(1:42-1:56)

Interlude(1:56-2:38)

With another guitar playing the same with other rythm

e|------------------|
B|------------------|
G|------------------|  (x4)
D|3--------7--------|
A|3--(x8)--7--------|(x8)
E|1--------5--------|

The next two rythms are played together

e|-------------------------------------|
B|-------------------------------------|
G|------------------------------7------|
D|3----7----3----7----3----7----7----5-|
A|3----7----3----7----3----7----5----5-|
E|1----5----1----5----1----5---------3-|

e|10--12
B|------|
G|------|  (x8)
D|------|
A|------|
E|------|

Strange Chorus(2:39-2:54)

The chords from the Chorus but playing this:

e|------------|
B|------------|
G|7-----9--9--|  (x8)
D|------------|
A|------------|
E|------------|

Chorus(2:54-3:07)

Then...(3:07)

"Stop or go" lyrics

Stop or go,
I'm so confused I don't know what to do,
Cos everybody looks at me and you,
I think theres something we're supposed to do,
But I'm not sure.

And I will go,
If you don't let me in,
Is that where we begin?
Is that where we begin?

Stop or go, again,
I think I've been here once before,
Theres people hanging round outside the door,
Doing things we're trying to ignore,
But I don't care.

Cos I will go,
If you don't let me in,
Is that where we begin?
Is that where we begin?

And I'm not sure,
Cos I found out you're going out with him,
Is that where we begin?
Is that where we begin?

I never thought it could be so funny,
When you're still hanging round,
Spending all our money,
I never thought it could be so funny,
And you're still hanging round,
But we've got no money.

I never thought it could be so funny,
When you're still hanging round,
Spending all our money,
I never thought it could be so funny,
When you're still hanging round,
And around and around,

I will go,
If you don't let me in,
Is that where we begin?
Is that where we begin?

I found out,
You're going out with him,
Is that where we begin?
Is that where we begin?

I will go,
If you don't let me in,
Is that where we begin?
Is that where we begin?

Stop!
            
Submit corrections



        Stop Or Go lessons Hard to play? Try these video lessons and learn fast Stop Or Go lessons
        
↑ Back to top | Tablatures and chords for acoustic guitar and electric guitar, ukulele, drums are parodies/interpretations of the original songs. You may use it for private study, scholarship, research or language learning purposes only