» » »

The Pigeon Detectives - Keep On Your Dress Tabs

Artists:  A B C D E F G H I J K L M N O P Q R S T U V W X Y Z # 

Keep On Your Dress Tabs

(ver. 1) Click to play this song!
The Pigeon Detectives
 Rating:
4.6/5 (9 votes)


 Keep On Your Dress lessons Tabs too difficult? Try these video lessons and learn fast
 
                pretty confident on this one apart from guitar 1 on the bridge.
and this is my first tab :D

intro

Guitar 1

     e|--4---------------|
     B|----5---5-----5---|
     G|------6-----6---6-|  X12
     D|------------------|
     A|------------------|
     E|------------------|


Guitar 2

after guitar 1 plays the above four times, play:
listen to song for timing

        C#m    A     E     B
     e|--4-----5-----7-----7-----|
     B|--5-----5-----9-----7-----|
     G|--6-----6-----9-----8-----|    X2
     D|--6-----7-----9-----9-----|
     A|--4-----7-----7-----9-----|
     E|--------5-----------7-----|

1ST verse

guitar 1 - let C#m and E ring

        C#m       A  E        B
     e|--4--------55-7--------77-|
     B|--5--------55-9--------77-|
     G|--6--------66-9--------88-|
     D|--6--------77-9--------99-|
     A|--4--------77-7--------99-|
     E|-----------55----------77-|
         D        UU D        UU

Guitar 2

           C#m    A     E     B
     e|--4x44x44x-55-7x77x77x-77-|
     B|--5x55x55x=55-9x99x99x-77-|
     G|--6x66x66x-66-9x99x99x-88-|
     D|--6x66x66x-77-9x99x99x-99-|
     A|--4x44x44x-77-7x77x77x-99-|
     E|-----------55----------77-|
         DDUDDUDD UU DDUDDUDD UU

chorus

both guitars

         F#m                     A
     e|--9--9--9--9--9--9--9--9--12-12-12-12-12-12-12-12-|
     B|--10-10-10-10-10-10-10-10-14-14-14-14-14-14-14-14-|
     G|--11-11-11-11-11-11-11-11-14-14-14-14-14-14-14-14-|
     D|--11-11-11-11-11-11-11-11-14-14-14-14-14-14-14-14-|
     A|--9--9--9--9--9--9--9--9--12-12-12-12-12-12-12-12-|
     E|--------------------------------------------------|
         D  D  D  D  D  D  D  D  D  D  D  D  D  D  D  D


         E
     e|--7--7--7--7--7--7--7--7--7--7--7--7--7--7--7--7-|
     B|--9--9--9--9--9--9--9--9--9--9--9--9--9--9--9--9-|
     G|--9--9--9--9--9--9--9--9--9--9--9--9--9--9--9--9-|
     D|--9--9--9--9--9--9--9--9--9--9--9--9--9--9--9--9-|
     A|--7--7--7--7--7--7--7--7--7--7--7--7--7--7--7--7-|
     E|-------------------------------------------------|
         D  D  D  D  D  D  D  D  D  D  D  D  D  D  D  D

2nd verse

Guitar 1

"whats that supposed to mean your making no sense..."
     e|--4---4---4---4---4---4---5---5----|
     B|----5---5---5---5---5---5---5----5-|
     G|-----------------------------------|  X4
     D|-----------------------------------|
     A|-----------------------------------|
     E|-----------------------------------|

Guitar 2

           C#m    A     E     B
     e|--4x44x44x-55-7x77x77x-77-|
     B|--5x55x55x=55-9x99x99x-77-|
     G|--6x66x66x-66-9x99x99x-88-|
     D|--6x66x66x-77-9x99x99x-99-|
     A|--4x44x44x-77-7x77x77x-99-|
     E|-----------55----------77-|
         DDUDDUDD UU DDUDDUDD UU

solo

could get first guitar.
second guitar plays verse.

bridge

guitar 1
      "i think it's time that we were going now..."

     e|---------10-9---------10-9---------12-9---------12-9-|
     B|-------9------------9------------9------------9------|
     G|--9/11---------9/11---------9/11---------9/11--------|    X2
     D|-----------------------------------------------------|
     A|-----------------------------------------------------|
     E|-----------------------------------------------------|


guitar 2

         E        C#m     A
     e|--0---------4------5-------|
     B|--0---------5------5-------|
     G|--1---------6------6-------|
     D|--2---------6------7-------|
     A|--2---------4------7-------|
     E|--0----------------5-------|


intro
1st verse
chorus
2nd verse
chorus
solo
bridge
chorus
intro
            
Submit corrections



        Keep On Your Dress lessons Hard to play? Try these video lessons and learn fast Keep On Your Dress lessons
        
↑ Back to top | Tablatures and chords for acoustic guitar and electric guitar, ukulele, drums are parodies/interpretations of the original songs. You may use it for private study, scholarship, research or language learning purposes only