» » »

The Paper Kites - Standing In The Rain Tabs

Artists:  A B C D E F G H I J K L M N O P Q R S T U V W X Y Z # 

Standing In The Rain Tabs

(ver. 1) Click to play this song!
The Paper Kites
 Rating:
4.3/5 (21 vote)

 Standing In The Rain lessons Tabs too difficult? Try these video lessons and learn fast
 
                [Intro]
    C                                             //D
e|-----------------------0-----------------------------------------------0------------------------|
B|-----------1-----------------------1-----------------------3-----------------------3------------|
G|-----0-----------0-----------0-----------0-----0-----0-----------0-----------0-----------0-----0|
D|--------2-----2-----------------2-----2-----------------4-----4-----------------4-----4---------|
A|--3-----------------3-----3-----------------3-----5-----------------5-----5-----------------5---|
E|------------------------------------------------------------------------------------------------|

    G                                                  Em
e|-----------------------3--------------------------------------------------0---------------------------|
B|-----------0-----------------------0--------------------------0-----------------------0-----------0---|
G|-----0-----------0-----------0--------------2-----0-----0-----------0-----------0-----------0---------|
D|--------------0-----------0-----------0--------------------2-----2-----------2-----2-----2------------|
A|--------2-----------2-----------2--------------------------------------2-----------------------2------|
E|--3--------------------------------------3-----3-----0------------------------------------------------|

e|------------------------------------------------------------------------------------------------|
B|------------------------------------------------------------------------------------------------|
G|------------------------------------------------------------------------------------------------|
D|------------------------------------------------------------------------------------------------|
A|------------------------------------------------------------------------------------------------|
E|------------------------------------------------------------------------------------------------|




[Verses]
1.  Tried                to                         see                 what
2.  Tired                from                       all                 those
3.  Hiding                                          til                 your
    C                                             //D
e|-----------------------0-----------------------------------------------0------------------------|
B|-----------1-----------------------1-----------------------3-----------------------3------------|
G|-----0-----------0-----------0-----------0-----0-----0-----------0-----------0-----------0-----0|
D|--------2-----2-----------------2-----2-----------------4-----4-----------------4-----4---------|
A|--3-----------------3-----3-----------------3-----5-----------------5-----5-----------------5---|
E|------------------------------------------------------------------------------------------------|

1.  it                     means               to say
2.  things                 that                you take
3.  numb                   and                 your gray
    G                                                  Em
e|-----------------------3--------------------------------------------------0---------------------------|
B|-----------0-----------------------0--------------------------0-----------------------0-----------0---|
G|-----0-----------0-----------0--------------2-----0-----0-----------0-----------0-----------0---------|
D|--------------0-----------0-----------0--------------------2-----2-----------2-----2-----2------------|
A|--------2-----------2-----------2--------------------------------------2-----------------------2------|
E|--3--------------------------------------3-----3-----0------------------------------------------------|

1.  Break                my                         bones               and
2.  Always                                          fighting
3.  That's               no                         way                  to 
    C                                             //D
e|-----------------------0-----------------------------------------------0------------------------|
B|-----------1-----------------------1-----------------------3-----------------------3------------|
G|-----0-----------0-----------0-----------0-----0-----0-----------0-----------0-----------0-----0|
D|--------2-----2-----------------2-----2-----------------4-----4-----------------4-----4---------|
A|--3-----------------3-----3-----------------3-----5-----------------5-----5-----------------5---|
E|------------------------------------------------------------------------------------------------|

1.  I                    praise                      the pain
2.  keeps                you                         awake
3.  try                  win                         the day
    G                                                  Em
e|-----------------------3--------------------------------------------------0---------------------------|
B|-----------0-----------------------0--------------------------0-----------------------0-----------0---|
G|-----0-----------0-----------0--------------2-----0-----0-----------0-----------0-----------0---------|
D|--------------0-----------0-----------0--------------------2-----2-----------2-----2-----2------------|
A|--------2-----------2-----------2--------------------------------------2-----------------------2------|
E|--3--------------------------------------3-----3-----0------------------------------------------------|

1.  Don't                   take                    shelter   
2.  Crying                                          when         your
3.  Life                    wants                   you          to 
    C                                               D
e|-----------------------------------------------------------2--------2-----------2---------------|
B|-----------1-----------1-----------1-----------------3--------------------3-----------3-----3---|
G|-----0-----------0-----------0-----------0-----0--------2-----2--------2-----------2-----2------|
D|--------2-----2-----------2-----------2-----2-----0--------------0-----------0------------------|
A|--3-----------------3-----------3---------------------------------------------------------------|
E|------------------------------------------------------------------------------------------------|

1.  Stand         in             the                rain
2.  heart         seems          to                 break
3.  feel          it             and                say
    C                                               Dsus                   D
e|--------------------------------------------------------------3----------2----------------------|
B|-----------1-----------1-----------1-----------------3-----3-----3----3-------------------------|
G|-----0-----------0-----------0-----------0-----0--------2----------2----------------------------|
D|--------2-----2-----------2-----------2-----2-----0---------------------------------------------|
A|--3-----------------3-----------3---------------------------------------------------------------|
E|------------------------------------------------------------------------------------------------|


    It's             meant             to           feel                 that
    C                                             //D
e|-----------------------0-----------------------------------------------0------------------------|
B|-----------1-----------------------1-----------------------3-----------------------3------------|
G|-----0-----------0-----------0-----------0-----0-----0-----------0-----------0-----------0-----0|
D|--------2-----2-----------------2-----2-----------------4-----4-----------------4-----4---------|
A|--3-----------------3-----3-----------------3-----5-----------------5-----5-----------------5---|
E|------------------------------------------------------------------------------------------------|

    way
    G                                                  Em
e|-----------------------3--------------------------------------------------0---------------------------|
B|-----------0-----------------------0--------------------------0-----------------------0-----------0---|
G|-----0-----------0-----------0--------------2-----0-----0-----------0-----------0-----------0---------|
D|--------------0-----------0-----------0--------------------2-----2-----------2-----2-----2------------|
A|--------2-----------2-----------2--------------------------------------2-----------------------2------|
E|--3--------------------------------------3-----3-----0------------------------------------------------|

            
Submit corrections


        Standing In The Rain lessons Hard to play? Try these video lessons and learn fast Standing In The Rain lessons
        
↑ Back to top | Tablatures and chords for acoustic guitar and electric guitar, ukulele, drums are parodies/interpretations of the original songs. You may use it for private study, scholarship, research or language learning purposes only