Home » T » The Osmonds »

The Osmonds - Crazy Horses Bass

Artists:  A B C D E F G H I J K L M N O P Q R S T U V W X Y Z # 

Crazy Horses Bass

(ver. 1) Click to play this song!
The Osmonds
Tuning: Standard

Intro

G|----------------------------------------|
D|----------------------------------------|
A|----------------------------------------|
E|3-5-5-5-5-3-5-5-5-5-3-5-5-5-5-3-5-5-5-5-|

Verse x 2

G|-----------------------------------------------------------------|
D|-----------------------------------------------------------------|
A|--------------------------------3-5------------------------------|
E|3-5-5-5-5-3-5-5-5-5-3-5-5-3-5-5-----5-5-5-5----------------------|

Pre-chorus (Donny's part) 

G|-----------------------------------------------------------------|
D|3-3-3-3-3-3-3-3-5-5-5-5-5-5-5-5---------7-7-7-7------------------|
A|---------------------------------------------------3-----3-------|
E|--------------------------------5-5-5-5---------3h5--3h5---------|

G|-------------------------------------------12-12-12-12-----------------------|
D|3-3-3-3-3-3-3-3-5-5-5-5-5-5-5-5-----------------------------10--------10-----|
A|--------------------------------10-10-10-10------------10h12-----10h12-------|
E|-----------------------------------------------------------------------------|

Chorus (Crazy Horses) 

G|------------------------------------------------------------------|
D|------------------------------------------------------------------|
A|----3-------------------------3----3--5--6--7---------------------|
E|3-5---5-3-5-5-5-5-3-5-5-5-3-5---5---------------------------------|

Verse x 2 

Pre Chorus

Chorus

Solo x 2

G|------------------------------------------------------------------|
D|------------------------------------------------------------------|
A|--------------------------------3-5-------------------------------|
E|3-5-5-5-5-3-5-5-5-5-3-5-5-3-5-5-----5-5-5-5-----------------------|

Verse after solo

G|------------------------------------------------------------------|
D|------------------------------------------------------------------|
A|5-5-5-5-5-5-5-5-7-7-7-7-7-7-7-7-9-9-9-9-9-9-9-9(hold)-------------|
E|------------------------------------------------------------------|

End chorus (repeat until song end)

G|------------------------------------------------------------------|
D|------------------------------------------------------------------|
A|----3-------------------------3----3--5--6--7---------------------|
E|3-5---5-3-5-5-5-5-3-5-5-5-3-5---5---------------------------------|            
Submit corrections

↑ Back to top | Tablatures and chords for acoustic guitar and electric guitar, ukulele, drums are parodies/interpretations of the original songs. You may use it for private study, scholarship, research or language learning purposes only