» » »

The Naked And Famous - Young Blood Stripped Tabs

Artists:  A B C D E F G H I J K L M N O P Q R S T U V W X Y Z # 

Young Blood Stripped Tabs

(ver. 1) Click to play this song!
The Naked And Famous
 Rating:
4.3/5 (24 votes)

 Young Blood Stripped lessons Tabs too difficult? Try these video lessons and learn fast
 
                [Verse 1]

e|------------------------|------------------------|------------------------|------------------------|
B|----------7-------------|------------------------|----------7-------------|------------------------|
G|----------7-------------|----------7-------------|----------7-------------|----------7----------7--|
D|----7-------------------|----------7-------------|----7-------------------|----------7----------7--|  x2
A|-10----10---------------|----9-------------------|-10----10---------------|----9-----------7-------|
E|------------------------|-7-----7----------------|------------------------|-7-----7-----5-----5----|

[Chorus 1]

e|------------------------|------------------------|------------------------|------------------------|
B|------------------------|------------------------|------------------------|------------------------|
G|-------7-----7--7-------|----------7-----------7-|-------7-----7--7-------|----------7-----------7-|
D|-------7-----9--7-------|----------7-----------7-|-------7-----9--7-------|----------7-----------7-| x2
A|-10-10----10-------10-7-|----9-----------9-------|-10-10----10-------10-7-|----9-----------7-------|
E|------------------------|-10----10----10----10---|------------------------|-10----10----9-----9----|

[Verse 2]

e|------------------------|------------------------|
B|----------7-----------7-|------------------------|
G|----------7-----------7-|----------7-----------7-|
D|----7-----------7-------|----------7-----------7-| x2
A|-10----10----------10---|----9-----------9-------|
E|------------------------|-7-----7-----------7----|

e|------------------------|------------------------|------------------------|------------------------|
B|----------7-----------7-|------------------------|----------10----7-------|------------------------|
G|----------7-----------7-|----------7-----------7-|----------7-----7-------|----------7----------7--|
D|----7-----------7-------|----------7-----------7-|----7-------------------|----------7----------7--|
A|-9h10--10----------10---|----9-----------9-------|-10----10---------------|----9-----------7-------|
E|------------------------|-7-----7-----------7----|------------------------|-7-----7-----5-----5----|

[Pre-Chorus]

e|------------------------|------------------------|------------------------|------------------------|
B|-7----------------------|------------------------|-7----------------------|------------------------|
G|-7----------------------|-7----------------------|-7----------------------|-7-----------7----------|
D|-7----------------------|-7----------------------|-7----------------------|-7-----------7----------|
A|-10---------------------|-9----------------------|-10---------------------|-9-----------7----------|
E|-10---------------------|-7----------------------|-10---------------------|-7-----------5----------|

e|------------------------|------------------------|------------------------|------------------------|
B|-7----------------------|------------------------|-7----------------------|------------------------|
G|-7----------------------|-7----------------------|-7----------------------|-7-----------7----------|
D|-7----------------------|-7----------------------|-7----------------------|-7-----------7----------|
A|-10---------------------|-9----------------------|-10---------------------|-9-----------7----------|
E|-10---------------------|-7----------------------|-10---------------------|-7-----------5----------|

[Chorus 2] same as chorus 1

e|------------------------|------------------------|------------------------|------------------------|
B|------------------------|------------------------|------------------------|------------------------|
G|-------7-----7--7-------|----------7-----------7-|-------7-----7--7-------|----------7-----------7-|
D|-------7-----9--7-------|----------7-----------7-|-------7-----9--7-------|----------7-----------7-| x2
A|-10-10----10-------10-7-|----9-----------9-------|-10-10----10-------10-7-|----9-----------7-------|
E|------------------------|-10----10----10----10---|------------------------|-10----10----9-----9----|

[Bridge]

e|------------------------|------------------------|------------------------|------------------------|
B|------------------------|------------------------|------------------------|------------------------|
G|----------7-----------7-|----------6-----------6-|----------7-----------7-|----------7----------7--|
D|----------7-----------7-|----------7-----------7-|----------7-----------7-|----------7----------7--|
A|----9-----------9-------|----7-----------7-------|----9-----------9-------|----9-----------9-------|
D|-10----10----10----10---|-5-----5-----5-----5----|-7-----7-----7-----7----|-7-----7-----7-----7----|

e|------------------------|------------------------|------------------------|------------------------|
B|------------------------|------------------------|------------------------|----------7-----------7-|
G|----------7-----------7-|----------6-----------6-|----------7-----------7-|----------7-----------7-|
D|----------7-----------7-|----------7-----------7-|----------7-----------7-|----7-----------7-------|
A|----9-----------9-------|----7-----------7-------|----9-----------9-------|-10----10----10----10---|
E|-10----10----------10---|-5-----5-----------5----|-7-----7-----7-----7----|------------------------|

e|------------------------|------------------------|------------------------|------------------------|
B|------------------------|------------------------|------------------------|------------------------|
G|----------7-----------7-|----------6-----------6-|----------7-----------7-|----------7----------7--|
D|----------7-----------7-|----------7-----------7-|----------7-----------7-|----------7----------7--|
A|----9-----------9-------|----7-----------7-------|----9-----------9-------|----9-----------9-------|
E|-10----10----10----10---|-5-----5-----5-----5----|-7-----7-----7-----7----|-7-----7-----7-----7----|

e|------------------------|------------------------|------------------------|------------------------|
B|------------------------|------------------------|------------------------|----------7-----------7-|
G|----------7-----------7-|----------6-----------6-|----------7-----------7-|----------7-----------7-|
D|----------7-----------7-|----------7-----------7-|----------7-----------7-|----7-----------7-------|
A|----9-----------9-------|----7-----------7-------|----9-----------9-------|-10----10----10----10---|
E|-10----10----------10---|-5-----5-----------5----|-7-----7-----7-----7----|------------------------|

e|------------------------|------------------------|------------------------|------------------------|
B|----------7-----------7-|----------7-------------|----------7-----------7-|----------7-------------|
G|----------7-----------7-|----------7-----------6-|----------7-----------7-|----------7-----------6-|
D|----7-----------7-------|----7-----------7-------|----7-----------7-------|----7-----------7-------|
A|-10----10----10----10---|-7/10--10----10----10---|-10----10----10----10---|-7/10--10----10----10---|
E|------------------------|------------------------|------------------------|------------------------|

e|------------------------|------------------------|------------------------|------------------------|
B|----------7-----------7-|------------------------|----------7-----------7-|------------------------|
G|----------7-----------7-|----------7----------7--|----------7-----------7-|----------7----------7--|
D|----7-----------7-------|----------7----------7--|----7-----------7-------|----------7----------7--|
A|-10----10----10----10---|----9-----------7-------|-10----10----10----10---|----9-----------7-------|
E|------------------------|-7-----7-----5-----5----|------------------------|-7-----7-----5-----5----|

e|------------------------|------------------------|
B|------------------------|------------------------|
G|------------------------|------------------------|
D|------------------------|------------------------|
A|------------------------|------------------------|
E|------------------------|------------------------|

[Chorus 3]

e|------------------------|------------------------|------------------------|------------------------|
B|------------------------|------------------------|------------------------|------------------------|
G|-------7-----7--7-------|----------7-----------7-|-------7-----7--7-------|----------7-----------7-|
D|-------7-----9--7-------|----------7-----------7-|-------7-----9--7-------|----------7-----------7-| x3
A|-10-10----10-------10-7-|----9-----------9-------|-10-10----10-------10-7-|----9-----------7-------|
E|------------------------|-10----10----10----10---|------------------------|-10----10----9-----9----|

e|------------------------|------------------------|------------------------|------------------------|
B|------------------------|------------------------|------------------------|------------------------|
G|-------7-----7--7-------|----------7-----------7-|-------7-----7--7-------|----------7-----------7-|
D|-------7-----9--7-------|----------7-----------7-|-------7-----9--7-------|----------7-----------7-| x3
A|-10-10----10-------10-7-|----9-----------9-------|-10-10----10-------10-7-|----9-----------7-------|
E|------------------------|-10----10----10----10---|------------------------|-10----10----9-----9----|

e|------------------------|
B|------------------------|
G|-7----------------------|
D|-7----------------------|
A|-9----------------------|
E|-10---------------------|

            
Submit corrections


        Young Blood Stripped lessons Hard to play? Try these video lessons and learn fast Young Blood Stripped lessons
        
↑ Back to top | Tablatures and chords for acoustic guitar and electric guitar, ukulele, drums are parodies/interpretations of the original songs. You may use it for private study, scholarship, research or language learning purposes only