Home » T » The Naked And Famous »

The Naked And Famous - All Of This Bass

Artists:  A B C D E F G H I J K L M N O P Q R S T U V W X Y Z # 

All Of This Bass

(ver. 1) Click to play this song!
The Naked And Famous
[Intro and Verse - I can't begin to...]

G|---------------------------------------------------------------------------|
D|---------------------------------------------------------------------------|
A|---------------------------------------------------------------------------|
E|-5-5-5-5-5-5-5-5-5-5-5-5-5-5-5-5-5-5-5-5-5-5-5-5-5-5-5-5-5-5-5-5-----------|

G|---------------------------------------------------------------------------|
D|---------------------------------------------------------------------------|
A|-5-5-5-5-5-5-5-5-5-5-5-5-5-5-5-5-5-5-5-5-5-5-5-5-5-5-5-5-5-5-5-5-----------|
E|---------------------------------------------------------------------------| X4

[Chorus - All of this...]

G|------------------------------------------------|
D|------------------------------------------------|
A|-----------------5-5-5-5-5-5-5-5----------------|
E|-2-2-2-2-2-2-2-2-----------------5-5-5-5--------| X3

G|------------------------------------------------|
D|------------------------------------------------|
A|-----------------5-5-5-5-5----------------------|
E|-2-2-2-2-2-2-2-2--------------------------------| X1

[Verse - Starts...]

G|---------------------------------------------------------------------------|
D|---------------------------------------------------------------------------|
A|---------------------------------------------------------------------------|
E|-5-5-5-5-5-5-5-5-5-5-5-5-5-5-5-5-5-5-5-5-5-5-5-5-5-5-5-5-5-5-5-5-----------|

G|---------------------------------------------------------------------------|
D|---------------------------------------------------------------------------|
A|-5-5-5-5-5-5-5-5-5-5-5-5-5-5-5-5-5-5-5-5-5-5-5-5-5-5-5-5-5-5-5-5-----------|
E|---------------------------------------------------------------------------| X4

[As the plans turn in to compromise...]
G|---------------------------------------------------------------------------|
D|---------------------------------------------------------------------------|
A|---------------------------------------------------------------------------|
E|-5-5-5-5-5-5-5-5-5-5-5-5-5-5-5-5-5-5-5-5-5-5-5-5-5-5-5-5-7-7-7-7-----------|

G|---------------------------------------------------------------------------|
D|---------------------------------------------------------------------------|
A|-5-5-5-5-5-5-5-5-5-5-5-5-5-5-5-5-5-5-5-5-5-5-5-5-5-5-5-5-5-5-5-5-----------|
E|---------------------------------------------------------------------------| X6

[Chorus - All of this...}

G|------------------------------------------------|
D|------------------------------------------------|
A|-----------------5-5-5-5-5-5-5-5----------------|
E|-2-2-2-2-2-2-2-2-----------------5-5-5-5--------| X3

G|------------------------------------------------|
D|------------------------------------------------|
A|-----------------5-5-5-5-5----------------------|
E|-2-2-2-2-2-2-2-2--------------------------------| X1

[Solo]

G|------------------------------------------------|
D|------------------------------------------------|
A|-----------------5-5-5-5-5-5-5-5----------------|
E|-2-2-2-2-2-2-2-2-----------------5-5-5-5--------| X3

G|------------------------------------------------|
D|------------------------------------------------|
A|-----------------5-5-5-5-5----------------------|
E|-2-2-2-2-2-2-2-2--------------------------------| X1

[Outro]

G|---------------------------------------------------------------------------|
D|---------------------------------------------------------------------------|
A|---------------------------------------------------------------------------|
E|-5-5-5-5-5-5-5-5-5-5-5-5-5-5-5-5-5-5-5-5-5-5-5-5-5-5-5-5-5-5-5-5-----------|

            
Submit corrections

↑ Back to top | Tablatures and chords for acoustic guitar and electric guitar, ukulele, drums are parodies/interpretations of the original songs. You may use it for private study, scholarship, research or language learning purposes only