Home » T » The Morning Benders »

The Morning Benders - Wet Cement Tabs

Artists:  A B C D E F G H I J K L M N O P Q R S T U V W X Y Z # 

Wet Cement Tabs

(ver. 1) Click to play this song!
The Morning Benders
[Intro + Verse]
    C
e|-----------------8-----------------------------8------------------|
B|-----------------8-----------------------------8------------------|
G|-----------------9-----------9-----------------9------------------|
D|--10--10--10----10----10-10-10--10--10--10----10----10-10-10------|
A|--10--10--10----10----10-10-10--10--10--10----10----10-10-10------|
E|---8---8---8-----8-----8--8--8---8---8---8-----8-----8--8--8------|
               (we met one day...)
    Em
e|-----------------7-----------------------------7------------------|
B|-----------------8-----------8-----------------8------------------|
G|---9---9---9-----9-----9--9--9---9---9---9-----9-----9--9--9------|
D|---9---9---9-----9-----9--9--9---9---9---9-----9-----9--9--9------|
A|---7---7---7-----7-----7--7--7---7---7---7-----7-----7--7--7------|
E|------------------------------------------------------------------|
    Dm7
e|-----------------5-----------------------------5------------------|
B|-----------------6-----------6-----------------6------------------|
G|---5---5---5-----5-----5--5--5---5---5---5-----5-----5--5--5------|
D|---7---7---7-----7-----7--7--7---7---7---7-----7-----7--7--7------|
A|---5---5---5-----5-----5--5--5---5---5---5-----5-----5--5--5------|
E|------------------------------------------------------------------|
    C
e|-----------------8-----------------------------8------------------|
B|-----------------8-----------------------------8------------------|
G|-----------------9-----------9-----------------9------------------|
D|--10--10--10----10----10-10-10--10--10--10----10----10-10-10------|
A|--10--10--10----10----10-10-10--10--10--10----10----10-10-10------|
E|---8---8---8-----8-----8--8--8---8---8---8-----8-----8--8--8------|

(repeat)

[Chorus]
    G7(let ring)               Dm                         
e|--3-----------------------|--5-----------------10-9-8--|
B|--3-----------------------|--6--------------10---------|
G|--4-----------------------|--7------7-9--10------------|
D|--3-----------------------|--7-------------------------|
A|--5-----------------------|--5-------------------------|
E|--3-----------------------|----------------------------|
       (and while...       ...names)
    Em                         Am                           
e|--7-----7----7------8--7--|--5-----5----5-5--------5--4--|
B|--8-----8----8------------|--5-----5----5-5--------------|
G|--9-----9----9----9-------|--5-----5----5-5--------------|
D|--9-----9----9------------|--7-----7----7-7-----7--------|
A|--7-----7----7------------|--7-----7----7-7--------------|
E|--------------------------|--5-----5----5-5--------------|
        (when our...     ...concerned)
    G7                         Dm                         
e|--3-----------------------|--5----------12---10----8----8----7--|
B|--3-----------------------|--6----------------------------------|
G|--4-----------------------|--7------7/9----9----9----9----7-----|
D|--3-----------------------|--7----------------------------------|
A|--5-----------------------|--5----------------------------------|
E|--3-----------------------|-------------------------------------|
        (and in the...     ...days)

e|----------------------12---10----8----8----7---|
B|-----------------------------------------------|
G|------------------7/9----9----9----9----7------|
D|-----------------------------------------------|
A|-----------------------------------------------|
E|-----------------------------------------------|
      (what brought us here, why we try to stay)

    F            G             C             E               Dm
e|--1------------3----------|--8-----8--8----7-----7--7----|-5----5----5--5----|
B|--1------------3----------|--8-----8--8----9-----9--9----|-6----6----6--6----|
G|--2------------4----------|--9-----9--9----9-----9--9----|-7----7----7--7----|
D|--3------------5----------|-10----10-10----9-----9--9----|-7----7----7--7----|
A|--3------------5----------|-10----10-10----7-----7--7----|-5----5----5--5----|
E|--1------------3----------|--8---------------------------|-------------------|
       (we face back, all the way, whoa whoa oh, whoa whoa whoa oh)
    C              E               Dm
e|--8-----8--8----7-----7--7----|-5----5----5--5----|
B|--8-----8--8----9-----9--9----|-6----6----6--6----|
G|--9-----9--9----9-----9--9----|-7----7----7--7----|
D|-10----10-10----9-----9--9----|-7----7----7--7----|
A|-10----10-10----7-----7--7----|-5----5----5--5----|
E|--8---------------------------|-------------------|
        (whoa whoa oh, whoa whoa oh)            
Submit corrections

↑ Back to top | Tablatures and chords for acoustic guitar and electric guitar, ukulele, drums are parodies/interpretations of the original songs. You may use it for private study, scholarship, research or language learning purposes only