Home » T » The Morning Benders »

The Morning Benders - Waiting For A War Tabs

Artists:  A B C D E F G H I J K L M N O P Q R S T U V W X Y Z # 

Waiting For A War Tabs

(ver. 1) Click to play this song!
The Morning Benders
The Morning Benders



Intro:

Chords: Gmin Cmin F Bb Amin

e-------------------6------6------6-------------|
B----11-10-8-6--3-3---3--3---3--3---3-3/6~------|
G-----------------------------------------------|
D-----------------------------------------------|
A-----------------------------------------------|
E-----------------------------------------------|

e----------13--------13--------13------10-------|
B----10-10----10--10----10--10----10---13^(15)--|
G-----------------------------------------------|
D-----------------------------------------------|
A-----------------------------------------------|
E-----------------------------------------------|


Gmin          Cmin               F                Bb    Amin   Gmin
It feels less important when you want to wait it out I had enough
                Cmin       F            Bb          Amin    Gmin
feeling give me what I want or put me on the streets I'm getting tired of
Cmin        F          Bb      Amin         Gmin Cmin F Bb Amin
living my life like nothing's happening


Talk is cheap but lies are even cheaper
so it's really me I want you to count the ways you can make it up to me
I'm getting tired of everybody talking and not doing a thing

Eb                                       Dmin
here I am in the graveyard waiting for a war
Eb
I'm here, I'm calling out your name
                 Dmin      C#min Cmin
I've been here before

There's nothing left to talk about but there's plenty left to do
and if it's all the same to me you know it'll be different to you

I'm getting tired of living like I'm dying while the world is moving on

Here I am in the graveyard waiting for a war
I'm here, I'm calling out your name
I've been here before

F                      Cmin
Pardon me I must apologize
                                  Eb
I've been this way for quite some time
                               Bb
I tried to be just a long time ago
            
Submit corrections

↑ Back to top | Tablatures and chords for acoustic guitar and electric guitar, ukulele, drums are parodies/interpretations of the original songs. You may use it for private study, scholarship, research or language learning purposes only