» » »

Theme Music - La Pantera Rosa Tabs

Artists:  A B C D E F G H I J K L M N O P Q R S T U V W X Y Z # 

La Pantera Rosa Tabs

(ver. 1) Click to play this song!
Theme Music
 Rating:
4/5 (4 votes)
                (Theme)
pantera rosa


pantera rosa






e:----------------------------------------------|
B:---------------------------9-8-------8--7~~~~-|
G:---------7-8----------7-8------8--------------|
D:-9-10-----------9-10-------------10-----------|
A:----------------------------------------------|
E:----------------------------------------------|

e:----------------------------------------------|
B:---------------------------9-8-------8--7~~~~-|
G:---------7-8----------7-8------8--------------|
D:-9-10-----------9-10-------------10-----------|
A:----------------------------------------------|
E:----------------------------------------------|

e:----------------------------------------------|
B:---------------------------9-8-------8--7~~~~-|
G:---------7-8----------7-8------8--------------|
D:-9-10-----------9-10-------------10-----------|
A:----------------------------------------------|
E:----------------------------------------------|
            
Submit corrections

↑ Back to top | Tablatures and chords for acoustic guitar and electric guitar, ukulele, drums are parodies/interpretations of the original songs. You may use it for private study, scholarship, research or language learning purposes only