» » »

Theme - Power Rangers Bass

Artists:  A B C D E F G H I J K L M N O P Q R S T U V W X Y Z # 

Power Rangers Bass

(ver. 1) Click to play this song!
Theme
 Rating:
4/5 (4 votes)


 Power Rangers lessons Tabs too difficult? Try these video lessons and learn fast
 
                Tuning: Standard (E A D G)

You have to listen to understand.

Intro part 1
G|-------------------------------------|-----------------|
D|-------------------------------------|-2-0---0---------|
A|-------------------------------------|-----2---2-1-0-2-|x1
E|-----0-----0----0-----0-----0-----0--|-----------------|

G|-------------------------|
D|-------------------------|
A|-----------------------0-|x2
E|-0---0-0---0-0-0-3-0-3---|

Intro part 2


G|-------------------------------------|
D|-------------------------------------|
A|-3-3---3-3-3---3-3-3---3-3-3---3-----|
E|-----3-------3-------3-------3-------|

G|-------------------------------------|
D|-0-0---0-0-0---0-0-0---0-0-0---0-----|
A|-----0-------0-------0-------0-------|
E|-------------------------------------|

G|-------------------------------------|
D|-----4-------4-------4-------4-------|
A|-2-2---2-2-2---2-2-2---2-2-2---2-----|
E|-------------------------------------|

G|-------------------------------------|
D|-2-2---2-2-2---2-2-2---2-2-2---2-----|
A|-----2-------2-------2-------2-------|
E|-------------------------------------|

G|-------------------------------------|
D|-------------------------------------|
A|-3-3---3-3-3---3-3-3---3-3-3---3-2(let ring)
E|-----3-------3-------3-------3-------|

Verse
G|-----4-------4-------4-------4-------|
D|-2-2---2-2-2---2-2-2---2-2-2---2-----|
A|-------------------------------------|
E|-------------------------------------|

G|-------------------------------------|
D|-----------------0-0---0-0-0---0-----|
A|-3-3---3-3-3---3-----0-------0-------|
E|-----3-------3-----------------------|

Chorus
G|-------------------------------------|
D|-------------------------------------|
A|-----3-------3-------3-------3-------|
E|-1-1---1-1-1---1-1-1---1-1-1---1-----|

G|-------------------------------------|
D|-3---2---0-------0-------------------|
A|-------------3-------3---2---0-------|
E|---1---1---1---1---1---1---1---1-----|

Fill
G|---------------------------------------------------------|
D|---------------------------------------------------------|
A|---------------------------------------------0-0-1-1-2-2-|
E|-0-------0-------0---0---0-0-1-1-2-2-3-3-4-4-------------|

Ending
G|-------||
D|-------||
A|-------||
E|-0---0-||

Arrangement:
Intro part 1
Intro part 2
Verse x2
Chorus
Fill
Verse x2
Chorus
Ending

That'll be all for this one. Enjoy!
            
Submit corrections



        Power Rangers lessons Hard to play? Try these video lessons and learn fast Power Rangers lessons
        
↑ Back to top | Tablatures and chords for acoustic guitar and electric guitar, ukulele, drums are parodies/interpretations of the original songs. You may use it for private study, scholarship, research or language learning purposes only