» » »

The Kooks - Shine On Tabs

Artists:  A B C D E F G H I J K L M N O P Q R S T U V W X Y Z # 

Shine On Tabs

(ver. 1) Click to play this song!
The Kooks
 Rating:
4/5 (4 votes)

 Shine On lessons Tabs too difficult? Try these video lessons and learn fast
 
                (Intro)
-------------------------------------------------------------------------------
                             SHINE ON - The Kooks
-------------------------------------------------------------------------------

If you know good chords for the chorus near the ones I use.
Raise your hand.

Tuning: Standard, but capo 6th (no capo version, lower on the page...)


e|----------------------0---------------0-------0---------1-------|
B|----------------------1------------------1----1----x-x--3--x-x--|
G|-/2--0-----0----------0--0--2-0------------0--2----x-x--2--x-x--|
D|--------2----2--0------2---------2------------2----x-X--0--x-x--|
A|------------------3---------------------------0-----------------|
E|----------------------------------------------------------------|

e|--------------------0-------0---------1-------|
B|-1---------------------1----1----x-x--3--x-x--|
G|-0-----0--2-0------------0--2----x-x--2--x-x--|
D|-2---2---------2------------2----x-x--0--x-x--|
A|-3--------------------------0-----------------|
E|----------------------------------------------|

e|-----------1--|
B|-1----1----3--|
G|-0----2----2--|
D|-2----2----0--|
A|-3----0-------|
E|--------------|

TUNING : Standard, no capo

e|----------------------6---------------6-------6---------7-------|
B|----------------------7------------------7----7----x-x--9--x-x--|
G|-/8--6-----6----------6--6--8-6------------6--8----x-x--8--x-x--|
D|--------8----8--6------8---------8------------8----x-X--6--x-x--|
A|------------------9---------------------------6-----------------|
E|----------------------------------------------------------------|

e|-6------------------6-------6---------7-------|
B|-7---------------------7----7----x-x--9--x-x--|
G|-6-----6--8-6------------6--8----x-x--8--x-x--|
D|-8---8---------8------------8----x-x--6--x-x--|
A|-9--------------------------6-----------------|
E|----------------------------------------------|

e|-6---------7--|
B|-7----7----9--|
G|-6----8----8--|
D|-8----8----6--|
A|-9----6-------|
E|--------------|

This is only the Intro.

| /  slide up
| \  slide down
| h  hammer-on
| p  pull-off
| ~  vibrato
| +  harmonic
| x  Mute note
===============================================================================
            
Submit corrections


        Shine On lessons Hard to play? Try these video lessons and learn fast Shine On lessons
        
↑ Back to top | Tablatures and chords for acoustic guitar and electric guitar, ukulele, drums are parodies/interpretations of the original songs. You may use it for private study, scholarship, research or language learning purposes only